rock
 
|tablatures   |lyrics   |discussion forums   |more tabs @ XGuitar.com

Megadeth tabs

I Aint Superstitious bass tab

Artist: Megadeth
Song: I Ain't Superstitious
Album: Peace Sells... But Who's Buying?
Bassist: David Ellefson

Tune down half a step

Fig 1 (Intro)
G-----------------------------------------
D------------------------------------4-4--
A-----0--2--0--------------0--2--0--------
E--2------------2-2-----2-----------------

Fig 2x2 (Verse)
G------|-------------------------------------------------------
D------|---------------------------------------------4-4-------
A------|------6-6--7-7--8-9------6-6--7-7--8-9-----------------
E--/7--|--7-7----------------7-7-----------------2---2-2--2-2--

Fig 3x1 (Verse)
G---------------------------------------------------------
D-----------------------------------------------4-4-------
A------8-8--9-9--10-11------6-6--7-7--8-9-----------------
E--9-9------------------7-7-----------------2---2-2--2-2--

(Repeat Fig 2x2)
(Repeat Fig 3x1)

Fig 4x2 (Interlude)
G----------------------------------------
D------------------------------4-4-------
A--2---0-2---0-2---0-2---0------------0--
E----2-----2-----2-----2---2---2-2---2---

(Repeat Fig 3x1)
(Repeat Fig 2x2)
(Repeat Fig 3x1)
(Repeat Fig 4x2)
(Repeat Fig 3x1)

Fig 5 (Solo)
G------------------------------------------------------------------------------------
D------------------------------------------------------------------------------------
A------------------------------------------------------------------------------------
E--2-3-4-5--5--5--5-5-5-5-5-5-5-5-5-5-5-5-5-5-5-5--3--0-0-0-0-0-0-0-0-0-0-0-0-0-0-0--

Fig 5 Continue
G--------------------------------------------------------------------------------------
D--------------------------------------------------------------------------------------
A--------------------------------------------------------------------------------------
E--3--5-5-5-5-5-5-5-5-5-5-5-5-5-5-5-5--3--0-0-0-0-0-0-0-0-0-0-0-0-0-0-0--5--7-7-7-7-7--

Fig 5 Continue still
G------------------------------------------------------------------------------------------
D------------------------------------------------------------------------------------------
A------------------------------------------------------------------------------------------
E--7-7--6--5-5-5-5-5-5--3--0-0-0-0--2--3--4--5--6--7--7-7-7-7-7-7-7--5--2-2-2-2-2-2-2-2-2--

Fig 5 continue more
G-----------------------------------------------------------------------------------
D-----------------------------------------------------------------------------------
A--0--2-2-2-2-2-2-2-2-2-2--0---------------------2--4-4-4-4-4-4--3--2-2-2-2-2-2--0--
E-----------------------------2-2-2-2-2-2-2-2-2-------------------------------------

Fig 5 continue to End
G-------------------------------------------
D--------------------------------------4-4--
A-------------------------------------------
E--2-2---2-2---2-2---2-2---2-2---2-2---2-2--
  development and support by
dmitry ivanov