rock
 
|tablatures   |lyrics   |discussion forums   |more tabs @ XGuitar.com

Megadeth tabs

Hook In Mouth bass tab

Song: Hook In Mouth
Band: Megadeth

Tuning E, A, D, G

Riff 1
|-----------------------------|
|-----------------------------|
|--------------------------4--|
|-7-5-4--7-4-6--7-5-4--7-6----|

Riff 2 is not yet completed

|----------------|
|----------------|
|--8-7-5---8-5-7-|
|----------------|

Riff 3                          4x
|-------------------|---------------|
|-------------------|---------------|
|-8------7--------5-|---------------|
|---0-0----0-0-0----|-0-0-0-0-0-0-0-|


|-------------------|---------------|
|-------------------|---------------|
|-8------7--------5-|-8-7-5---8-5-7-|
|---0-0----0-0-0----|---------------|

Riff 4        4x
|---------------|
|---------------|
|-8-7-5---8-5-7-|
|---------------|

Here is a few riffs from the song
  development and support by
dmitry ivanov