rock
 
|tablatures   |lyrics   |discussion forums   |more tabs @ XGuitar.com

Megadeth tabs

High Speed Dirt guitar tab

HIGH SPEED DIRT
[Megadeth - Countdown To Extinction]
Transcribed by Christopher Heer
Five Magics - http://www.nebula.on.ca/heer/fivemagics/index.html


Standard Tuning

Intro

---------------------------0--------------------------------------------------------
-------------------------0---0------------------------------------------------------
---5---------7---------5-------5-5-5-5--------5/6-5/6-5~~---------------------------
---5---------7---7---5-----------5-5-4--------4/5-4/5-4~~---------------------------
-------0-0-0---0-7-0--------------------0-0-0---------------------------------------
------------------------------------------------------------------------------------

------------------------------------------------------------------------------------
------------------------------------------------------------------------------------
---5---------7-------5---7-------5\5-5~---------------------------------------------
---5---------7---7---5---7---7---5\4-4~--------2-3-4--2-3-4--2-3-4------------------
-------0-0-0---0-7-0---0---0-7-0---------0-0-0-3-4-5--3-4-5--3-4-5------------------
------------------------------------------------------------------------------------

Verse
------------------------------------------------------------------------------------
------------------------------------------------------------------------------------
---5---------5p0-5---5p0-7---5p0-5~~------------------------------------------------
---5---------5p0-4---4p0-7---4p0-5~~------------------------------------------------
-------0-0-0------------------------------------------------------------------------
------------------------------------------------------------------------------------

Pre-Chorus
------------------------------------------------------------------------------------
------------------------------------------------------------------------------------
-(2)---------4---5---7---8---7-5-2---------4---5---7---8---9-12-2-------------------
-(2)---------4---5---7---8---7-5-2---------4---5---7---8---9-12-2-------------------
-(0)---0-0-0-2-0-3-0-5-0-6---5-3-0---0-0-0-2-0-3-0-5-0-6---7-10-0-------------------
------------------------------------------------------------------------------------

Chorus
------------------------------------------------------------------------------------
------------------------------------------------------------------------------------
--(5)-------7-------5---7-------5\5-5~----------------------------------------------
--(5)-------7---7---5---7---7---5\4-4~--------2-3-4--2-3-4--2-3-4-------------------
------0-0-0---0-7-0---0---0-7-0---------0-0-0-3-4-5--3-4-5--3-4-5-------------------
------------------------------------------------------------------------------------

Outro
------------------------------------------------------------------------------------
------------------------------------------------------------------------------------
--2-------------------------------2-------------------------------------------------
--2---------------------7-----5---2---------------------7-----5---------------------
--0---0-0-0-5---5-------5-----3---0---0-0-0-5---5-------5-----3---------------------
------------3-0-2---0-0-----0---------------3-0-2---0-0-----0-----------------------
  development and support by
dmitry ivanov