rock
 
|tablatures   |lyrics   |discussion forums   |more tabs @ XGuitar.com

Megadeth tabs

Have Cool Will Travel guitar tab

HAVE COOL, WILL TRAVEL
[Megadeth - Cryptic Writings]
Transcribed by Mark Yeary / Christopher Heer
12/28/97
Five Magics - http://www.nebula.on.ca/heer/fivemagics/index.html


Standard Tuning

Intro & Verse
---------------------------------------------------
---------------------------------------------------
-9-9-9-9-9\---------------9-9-9-9-9\------------7--
-9-9-9-9-9\------7--8--9--9-9-9-9-9\------7--8--5--
-7-7-7-7-7\------7--8--9--7-7-7-7-7\------7--8-----
-----------------5--6--7------------------5--6-----

Pre-Chorus
-----------------------------------
-----------------------------------
-----------------------------------
------4-----2----------------------
----------------4-----3-----2------
---2-----2----2----2-----2-----5p2-


Chorus
(Rhythm)
----------------------------------------------------------------------
----------------------------------------------------------------------
------------------------------5--------------2------------------------
-2-------------5--------------5--------------2------------------------
-2-------------5--------------3--------------0------------------------
-0-------------3------------------------------------------------------

(Lead)
---------7------------------------------------------12------------------9--------
-----------------------------12---------------13----------13-------10-----10-----
-----9-------9---------12----------12------12----12----12--------9----9------9---
---9---9---9--------12----12----12------10---------------------7---------------7-
-7---------------10--------------------------------------------------------------
---------------------------------------------------------------------------------

Solo Rhythm #1
---------------------------------------------------
---------------------------------------------------
---------------------------------------------------
-2--------0--------2--------0--------2-----0-------
-2--------0--------2--------0--------2-----0-------
-----0--------0--------0--------0------------------

Solo Rhythm #2
-----------------------------
-----------------------------
-----------------------------    4x
-4h5-4-------2---------------
-------2h3h4---4p3p0-3p2-----
-------------------------5p2-



  development and support by
dmitry ivanov