rock
 
|tablatures   |lyrics   |discussion forums   |more tabs @ XGuitar.com

Megadeth tabs

Good Mourning Black Friday guitar tab

GOOD MOURNING / BLACK FRIDAY
[Megadeth - Peace Sells... But Who's Buying?]
Transcribed by S. Connelly / Mark Yeary
Five Magics - http://www.nebula.on.ca/heer/fivemagics/index.html


-----4-----0---------4----0---------4----0---
---4---4-----4-2---4---4----------4--4-------
-1------ 1-------4-------4-------------------
----------------------------6-4-2------2-----
---------------------------------------------
---------------------------------------------



-------------3-----------6-----------11---
---------------4-------5---5---8--11------
---------6-------6-4-6-------9------------
-2-4---5---5------------------------------
-----4------------------------------------
------------------------------------------



----4---0-------4---0-------4---0-------4-----4-----4-----3-- repeat 4x
--4---4---4---4---4---4---4---4---4---4-----4-----4-----4----
1-----------3-----------4-----------6-----4-----3-----0------
-------------------------------------------------------------
-------------------------------------------------------------
-------------------------------------------------------------



----------11-9-7-6---------7-6--9-7------ repeat measure
-4---4--7----------6---4-6---------------
---4-----------------3-------------------
-----------------------------------------
-----------------------------------------
-----------------------------------------
   

spoken:  Good Mourning
-------------------------7------
--7-8-10-8h-10p-8p-7------------
9---------------------9---------
--------------------------------
--------------------------------
--------------------------------



----------3h-5p-3---------------
----5-7-8---------7-5-8---------
8-8---------------------9-------
--------------------------------
--------------------------------
--------------------------------

()= 2nd time only

--------------------------------(7)-------(11)-------------
-7-8-8h-10p-8-7---7-----7-8-10--8h-10p-8p-7---------------- repeat
----------------9---8-9------------------------------------
-----------------------------------------------------------
-----------------------------------------------------------
-----------------------------------------------------------

guitar 1
w/ Distortion
.....................................................tight P.M.
-0---0-0---0--0----0-0---0------ etc. repeat x times
---0-----0------0------0--------
--------------------------------
--------------------------------
--------------------------------
--------------------------------


guitar 2
------------------------------------
------------------------------------
------------------------------------
-2----------------------2-----------
-2-----------5--3-------2-----------
-0-----------------3-2--0-----------


repeat both measures

------------------------------------- 
-------------------------------------
-------------------------------------
----------------2--------------------
--3--2----------2--------------------
--------3-2-3-5-0--------------------

Hey I don't feel so good...

-0---0-0-----0---0-0-----0---00-----0---0---0---- etc. repeat x times
---0-----0-0---0-----0-0---0----0-0---0---0---0--
-------------------------------------------------
-------------------------------------------------
-------------------------------------------------
-------------------------------------------------



--------------------------------
-------------------------------- repeat measure
--------------------------------
-2--4--5--7--5--4>5-------------
-2--4--5--7--5--4>5-------------
--------------------------------


pick slide
-------------------------------
-------------------------------
-------------------------------
-/--2---4--5--7--5--4->-5------
-/--2---4--5--7--5--4->-5------
----0---2--3--5--3--2->-3------


------------1st------------2nd-- to Black Friday
--------------------------------
--------------------------------                   
--------------------------------
-2---1--2--4-2-1>2-------2-1-2--
-0---2--3--5-3-2>3-------0-2-3--

---

Black Friday
(Mustaine)

tune down 1/4 step

   
Where it starts to speed up:   (play several times)

D)-------------------------------------------------
A)---4----5----2-----------------------------------
E)---2----3----0--------0--7-p-0---5-p-0-----------

Then:

D)-----------------------------------------------------------
A)--4--2--4--7--4--2--4--7--4--2--4--7--4--2--4--7-----4-----
E)--2--0--2--5--2--0--2--5--2--0--2--5--2--0--2--5-----2-----

Then a pick slide, and this riff  (played during "Killer, Intruder,"...etc)

D)------------------------------------------------
A)-------------3-p-2--------------------5---------
E)--2-2-2-----------------2-2-2-2-------3---------

D)------------------------------------------------
A)-------------3-p-2----------5-p-4--------2-h-4--
E)--2-2-2--------------2-------------2------------

D)------------------------------------------------
A)-------------3-p-2--------------------5---------
E)--2-2-2-2---------------2-2-2-2-------3---------

D)------------------------------------------------------------
A)--5-p-4----------3-p-2---------2-p-1------------------------
E)-------------0-------------0--------------0---2-p-1---0-----


	Blood thirsty demon....sinister fiend:

D)-------------------------------------------------
A)-------------4-p-3-------------------6-----------
E)--3-3-3-----------------3-3-3-3------4-----------

D)-------------------------------------------------
A)-------------4-p-3-------------------6-----------
E)--3-3-3-----------------3-3-3-3------4-----------

D)---------------------------------------------------------
A)--x-x--7---9--x-x--10--11--x-x--7---9--x-x--10-----------
E)--x-x--5---7--x-x---8---9--x-x--5---7--x-x---8-----------

	Bludgenous slaughters....:

D)-------------------------------------------
A)------------4-p-3------------------6-------
E)--3-3-3---------------3-3-3-3------4-------

D)-------------------------------------------
A)------------4-p-3------------------6-------
E)--3-3-3---------------3-3-3-3------4-------

D)-------------------------------------9-----11---------------------
A)--x-x---7---9--x-x--10--11---x-x-----7------9-----x--x----11------
E)--x-x---5---7--x-x---8---9----x-x-----------------x--x-----9------

Repeat.  then:

D)-----------------------------------------------
A)------------3-p-2--------------------5---------
E)---2-2-2----------------2-2-2-2------3---------

D)---------------------------------------------------------
A)--------------3-p-2------------5-p-4---------2-h-4-------
E)---2-2-2--------------2----------------2-----------------

D)----------------------------------------------------
A)--------------3-p-2--------------------5------------
E)---2-2-2-2----------------2-2-2-2------3------------

D)----------------------------------------------------------------
A)--5-p-4----------3-p-2----------2-p-1---------------------------
E)------------0---------------0---------------0---2-p-1---0-------

D)-----------------------------------------------------------------11----
A)--7-p-6----------5-p-4----------4-p-3----------------------4------9----
E)------------0---------------0---------------0--4-p-3--0----2-----------

Faster...(played during..."Their bodies convulse"...etc....)

D)-----------------------------------------------------
A)---------------2-h-3-p-2----------------2-(3)-------
E)--2-2-2-2--------------------2-2-2------------------

Play several times, then:

D)----------------11--------
A)----4------------9--------            repeat
E)----2---------------------

	I lurk in the alleys....:

D)-----------------------------------------4--2----5--4--2-----------
A)-----------------------------------------2--0----3--2--0------2----
E)--3-3-3-3-3-3-3-3-3-3-3-3-3-3-3-3-----------------------------0----

D)-----------------------------------------------------
A)----------------2-h-3-p-3----------------2--(3)------    repeat
E)--2-2-2-2---------------------2-2-2------------------

	A merciless butcher who lives underground...

D)--------------------------------------------------------
A)--------------------------------------------------4-----
E)-3333-3333-3333-3333----5555-5555-5555-5555-------2-----

	I'm out to destroy and I will cut you down...

D)---------------------------------------------------5--4--2---
A)---------------------------------------------------3--2--0---
E)-0-h-2-2-2-2222-0-h-2-2-2-2222-0-h-2-2-2-2222----------------

	Cut ya down:

D)---------------------------------------------------7--6--4---
A)---------------------------------------------------5--4--2---
E)-2-h-4-4-4-4444-2-h-4-4-4-4444-2-h-4-4-4-4444----------------

	I see you:

D)--------------------------------------------
A)-0-h-2-2-2-2-2-2-2-0-h-2-2-2-2-2-2-2--------
E)--------------------------------------------

D)--------------------------------------------
A)-2-h-4-4-4-4-4-4-4-2-h-4-4-4-4-4-4-4--------
E)--------------------------------------------

D)--------------------------------------------
A)-3-h-5-5-5-5-5-5-5---4-h-6-6-6-6-6-6-6------
E)--------------------------------------------

D)--------------------------------------------
A)-5-h-7-7-7-7-7-7-7---7-h-9-9-9-9-9-9-9------
E)--------------------------------------------

Then:

D)------------------------------------------------------------
A)------------------------------------------------------------
E)-0-h-2-2-2--2-2-2-2--2-2-2-2--2-2-2-2--2-2-2-2--2-2-2-2-----

D)---2---2---------------
A)---0---0-----2---------
E)-------------0---------

D)------------------------------------------------------------
A)------------------------------------------------------------
E)-0-h-2-2-2--2-2-2-2--2-2-2-2--2-2-2-2--2-2-2-2--2-2-2-2-----

D)----5--4--2------
A)----3--2--0------
E)-----------------

Play 4 times....the 4th time, finish with:

D)----5--4--2----5--------5--4--2--------
A)----3--2--0----3--------3--2--0--------
E)---------------------------------------

Ending:..."Devil on the, devil on the"

D)---5--4--2----5--4--2----5--4--2-----------4--------
A)---3--2--0----3--2--0----3--2--0-----------4--------
E)-------------------------------------------2--------

There may be some errors, but it sounds right to me.

Mark
JCPose@aol.com
  development and support by
dmitry ivanov