rock
 
|tablatures   |lyrics   |discussion forums   |more tabs @ XGuitar.com

Megadeth tabs

Five Magics bass tab

Artist: Megadeth
song: Five Magics
Album: Rust In Peace
Bassist: David Ellefson

Intro
G--------------------------------------------
D--------------------------------------------
A-7-5--------7-5--------7-5--------7-5-------
E-----7-5-6------7-5-6------7-5-6------7-5-3-

G-------------0------------------11----------------0------------------11-
D-----5-----8---8------9------10----10-----5-----8---8------9------10----
A---7-----7---------10-----12------------7-----7---------10-----12-------
E-0-----0---------0------0-------------0-----0---------0------0----------

G------------------------------------------------------
D-----5-----5------2-0-2-4-5-4-5-7------5-----5--------
A---5-----5--------2-0-2-4-5-4-5-7----5-----5----------
E-7-----6-----3-2-------------------7-----6-----3-2--0-

G-----------------------------------------------------------------------
D-----------------------------------------------------------------------
A---2------------------------------2------------2---------------2-------
E-0---0-0-1--1-1-1-1-1-1-1-1-1-1-0---0-0-0--0-0----0-0-0-0-3--0---0-0-1-

time change
G-------------------------------
D------0-2-------------4------5-
A---2---------3-----4----4------
E-0--------1------2--------3----

That's all I have for now.
  development and support by
dmitry ivanov