rock
 
|tablatures   |lyrics   |discussion forums   |more tabs @ XGuitar.com

Megadeth tabs

Family Tree guitar tab

Family tree [Megadeth - Youthansia]

Cesar Cardenas (Corrections: Michael James)
2/15/98

Eb Tuning

(Clean)
Eb|---------0------------------0-------|-------------0----------------0---|
Bb|------------------------------------|----------------------------------|
Gb|o-----9------------------7----------|----------5----------------7-----o|
Db|o-/9----------------9\7-------------|-----7\5--------------5/7--------o|
Ab|------------------------------------|----------------------------------|
Eb|------------------------------------|----------------------------------|

LAST TIME:
Eb|--------0------0--------------------|
Bb|---------------0--------------------|
Gb|-----4---------4--------------------|
Db|-\4------------4--------------------|
Ab|------------------------------------|
Eb|------------------------------------|


with dist.

Eb|------------------------------------|----------------------------------|
Bb|------------------------------------|----------------------------------|
Gb|------------------------------------|----------------------------------|
Db|--5^--2--------2--------------------|---------------------------x------|
Ab|---------------2--------------------|---------------------------x------|
Eb|---------3--2--0--------------------|---------------------------x------|


Then, Dave starts singing with no guitar line

(Forgotten things remebred...)


(I'm not good at bass, but...)

Gb|------------------------------------|----------------------------------|
Db|o-----------------------------------|----------------------------------|
Ab|o-----------------------------------|-5-5-5-5-5-5-5-5-5-5-5-5-5-0-5-7--|
Eb|--0-0-0-0-0-0-0-0-0-0-0-0-0-0-2-0---|----------------------------------|


Gb|------------------------------------|----------------------------------|
Db|------------------------------------|---------------------------------o|
Ab|-0-0-0-0-0-0-0-0-0-0-0-0-0-0---0----|3-3-3-3-3s6-6-6-6-6-6-6-6-6-6-6--o|
Eb|-----------------------------3------|----------------------------------|

Gtr 1 "Conspiracy of silence..."
Eb|----------------|-------------------|---------------|------------------|
Bb|----------------|-------------------|---------------|------------------|
Gb|o---------4-----|-------------------|----------4----|-------------4~--o|
Db|o-5-5---------5-|-5h7-5---7---5~----|-7-5---7-----5-|-5h7-5---7-------o|
Ab|--------7-------|-------7-----------|-----7---------|-------7----------|
Eb|----------------|-------------------|---------------|------------------|
  |Gtr 2           |                   |               |                  |
Eb|----------------|-------------------|---------------|------------------|
Bb|----------------|-------------------|---------------|------------------|
Gb|o---------------|-------------------|---------------|-----------------o|
Db|o---------------|-------------------|---------------|-----------------o|
Ab|--7-7---9-10--7-|-7h9-7---9---7~----|-9-7---9-10--7-|-7h9-7---9---10~--|
Eb|----------------|-------8-----------|-----8---------|-------8----------|

Gtr 1 "is turn around, run through it man..."
Eb|----------------|-------------------|---------------|------------------|
Bb|----------------|-------------------|---------------|------------------|
Gb|o---------4-----|-------------------|----------4----|-----------------o|
Db|o-5-5---7-----5-|-5h7-5---7---5~----|-7-5---7-----5-|-5-4---5---4~----o|
Ab|------7---------|-------7-----------|-----7---------|-----7------------|
Eb|----------------|-------------------|---------------|------------------|
  |Gtr 2           |                   |               |                  |
Eb|----------------|-------------------|---------------|------------------|
Bb|----------------|-------------------|---------------|------------------|
Gb|o---------------|-------------------|---------------|-----------------o|
Db|o---------------|-------------------|---------------|-----------------o|
Ab|--7-7---9-10--7-|-7h9-7---9---7~----|-9-7---9-10--7-|-7-6---7---6~-----|
Eb|------8---------|-------8-----------|-----8---------|-----7------------|

"Tell them...."  **LEAD**(With fills below)
|------------------------------------|---------------------------------------|
|-13~~~~-12~~~~----------------------|--------13~~~-12~~~--------------------|
|---------------14~~~~-12~~~~--------|--------------------14~~~-12~~~-11~~~--|
|-----------------------------14~~~~~~~~~~~~~--------------------------------|
|------------------------------------|---------------------------------------|
|------------------------------------|---------------------------------------|

"Tell them..."
Eb|------------------------------------|----------------------------------|
Bb|------------------------------------|----------------------------------|
Gb|----5-------------------------------|----------------------5-----------|
Db|----5------5b6--2------2------------|----------------------5----5b6----|
Ab|----3------------------2------------|----------------------3-----------|
Eb|------------------3-2--0---0-0-0-0-0|0-0-0-0-0-0-0-0-------------------|
                              . . . . . . . . . . . . .

Eb|------------------------------------|----------------------------------|
Bb|------------------------------------|-/16-16-16-16-16-16-16-16-16-16---|
Gb|-----------4------------------------|-/16-16-16-16-16-16-16-16-16-16---|
Db|----2------4------------------------|-/16-16-16-16-16-16-16-16-16-16---|
Ab|-----------2------------------------|----------------------------------|
Eb|------3-2---------------------------|----------------------------------|

Fill #1
|------------------------------------------------|
|-15^-15^----15-13-12----------------------------|
|----------------------14-12-11h12p11------------|
|-------------------------------------14~~~~~~~--|
|------------------------------------------------|
|------------------------------------------------|
Fill #2
|=|rake|=========15-17^~~--15^--14^-12h15p12----------------------------|
|-------------17-----------------------------12-15^-15^~~~~~~~~~~~------|
|----------16-----------------------------------------------------------|
|-------17--------------------------------------------------------------|
|-14h19-----------------------------------------------------------------|
|-----------------------------------------------------------------------|


Eb|------------------------------------|----------------------------------|
Bb|------------------------------------|----------------------------------|
Gb|------------------------------------|----------------------------------|
Db|--12-11-------9------------------9--|-------12-11-----9----------------|
Ab|--10--9-------7---------12--9----7--|-------10--9-----7------10--------|
Eb|----------0-----0-0--0--10--7-0-----|0--0-0--------0-----0-0-8---------|

BACKING FOR SOLO:
|-----------------------------------------------------------------------|
|----------------------------3---------------------3-----3-----0--------|
|----------------------------2---5-------------------0-----0------------|
|-2-----------------0-----0--0---5---------------5-----4-----5----------|
|-2---------------0-----2----0---3---3-3-3-3-3-3------------------------|
|-0-0-0-0-0-0-0-2-----3-------------------------------------------------|


  development and support by
dmitry ivanov