rock
 
|tablatures   |lyrics   |discussion forums   |more tabs @ XGuitar.com

Megadeth tabs

Enter The Arena guitar tab


Enter The Arena
Megadeth
Written by: Mustaine/Prager

Transcribed by: Psychotron - The Megadeth Sanctuary
		kweber@netwrx.net
		http://personal.netwrx.net/kweber/index.html



   Fade In and repeat
E--------------------------------------------------------
B--------------------------------------------------------
G---------------------------------------3----------------
D-----3---3---------6-----3---3---------3----------------
A-----3---3---3-----6-----3---3---3-----1----------------
E-----1---1---0-----4-----1---1---0----------------------


	
E--------------------------------------------------------
B--------------------------------------------------------
G---------------------------------------6---8------------
D-----3---3---------6-----3---3---------6---8------------
A-----3---3---3-----6-----3---3---3-----4---6------------
E-----1---1---0-----4-----1---1---0----------------------
  development and support by
dmitry ivanov