rock
 
|tablatures   |lyrics   |discussion forums   |more tabs @ XGuitar.com

Megadeth tabs

Ecstasy guitar tab


Ecstacy

Megadeth - Risk

Transcribed by the people at: The Megadeth Sanctuary
http://personal.netwrx.net/kweber/index.html
kweber@netwrx.net



These are the chords, listen to the rhythm to get it exact

Verse
E--5--5--5--3-|-3--1--3--0-----------------
B--6--5--6--3-|-3--3--3--3----2---3---2----
G--7--6--5--4-|-3--2--3--3----2---3---2----
D--0--0--0--0-|---------------2---3---2----
A-------------|---------------0---1---0----
E-------------|----------------------------


Repeat 3X
Chorus
E--------------------------
B--------------------------
G--------------------------
D---7--7--5--5-------------
A---5--4--3--2-------------
E--------------------------

E----------------------------------------------------
B-----------------------6---6-5----------------------
G---3------------5------5---5-5---3-----------2------
D---3-----3------5------5-X-5-----3-----3-----2------
A---1-----3------3--------X-------1-----3-----0------
E---------1---------------X-------------1------------


Repeat verse

Repeat chorus

Interlude
     2X			2X		   2X
E--------1---------|--------5---------|--------5----------|
B------3-----3-----|------5-----5-----|------6-----6------|
G----2-----2-----2-|----6-----6-----6-|----5-----5-----5--|
D--0-----------0---|--0-----------0---|--0-----------0----|
A------------------|------------------|-------------------|
E------------------|------------------|-------------------|


					2X
E--------3----------------3----------|--------3-----------|
B------3-----3-3--------3-----3------|------5-----5-------|
G----4-----4-----4----4-----4-----4--|----3-----3-----3---|
D--0----------------0-----------0----|--0-----------0-----|
A------------------------------------|--------------------|
E------------------------------------|--------------------|

E--------1----------------1----------------3--------------
B------3-----3----------3-----3----------3-----3----------
G----2-----2-----2----2-----2-----2----3-----3------------
D--0-----------0------------------------------------------
A-------------------3-----------3----------------5\-------
E------------------------------------1--------------------


E--------0--------------------------------------------------------------------
B------3-----0-----------2------3--------2-------3--------2-------3------2----
G----1-----1---1-------2------3--------2-------3--------2-------3--------2----
D----------------2---2------3-----3--2-----2-3-----3--2-----2-3-----3----2----
A--2---------------------------------------------------------------------0----
E-----------------------------------------------------------------------------

Repeat chorus
  development and support by
dmitry ivanov