rock
 
|tablatures   |lyrics   |discussion forums   |more tabs @ XGuitar.com

Megadeth tabs

Duke Nukem Theme guitar tab

MEGADETH

Duke Nukem Theme Song

Transcribed by P÷chacker S. (AUT)  Neon7@gmx.net

This song has got a little history...
I startet to make this tab when I was playing 2 years guitar. Now I'm 
playing 3 years and I finished the tab. Don't worry, I didn't need one 
year to tab this song. The cause of this long distance was, that I didn't 
know how to play the little part, right after speed pick part. Another one 
is that I have forgotten that the tab exist. So the rest of the tab is one 
year old. Anyway, here it is hope you'll enjoy it!

								  P.M.
  fig 1	(guitar 1 and 2)				fig 2	  _____
||-------------------------|-------------------------||--------------------
||-------------------------|-------------------------||--------------------
||o------------------------|------------------------o||o-------------------
||o------------------------|------------------------o||o-------------------
||---2--2---2----2--2---2--|--2--2---2----3--3---3---||--2--5--7--------7--
||---0--0---0----0--0---0--|--0--0---0----1--1---1---||--0--3--5--0--0--5--


       P.M.       P.M.					      P.M.
      _____      _____					      _____
-------------------------------------------------||------------------------
-------------------------------------------------||------------------------
------------------------------------------------o||------------------------
--------------------------------------5-------5-o||------------------------
--9-------9--10-----------------------3---5---3--||--2--5--7--------7--9---
--7--0--0-7--8---0--0--7h8p7--5 3--5------3------||--0--3--5--0--0--5--7---


   P.M.        P.M.
  _____       _____					    fig 3
----------------------------------------------------------||---------------
----------------------------------------------------------||---------------
----------------------------------------------------------||o--------------
------------------------------------5-------5-------5-----||o--------------
--------9--10-----------------------3---5---3---5---3---5-||---3--3---3----
--0--0--7---8--0--0--7h8p7--5 3--5------3-------3-------3-||---1--1---1----


-------------||
-------------||
------------o||
------------o||
--3--3---3---||
--1--1---1---||

fig 4 
  P.M.           P.M.            P.M.         P.M.            P.M.
  _____     _     _     _     __________     _     _     ______________
|-------------------------------------------------------------------------|
|-------------------------------------------------------------------------|
|-------------------------------------------------------------------------|
|-------------------------------------------------------------------------|
|--------2-----2-----2-----2--------------2-----2-----2-------------------|
|--0--0--0--0--0--0--0--0--0--000---0--0--0--0--0--0--0--0--0--000-000----|


   P.M.          P.M.            P.M.          P.M.           P.M.
  _____     _     _     _    ____________    _     _    ________________
|-------------------------------------------------------------------------|
|-------------------------------------------------------------------------|
|-------------------------------------------------------------------------|
|-------------------------------------------------------------------------|
|--------2-----2-----2-----2--------------2-----2-----2-------------------|
|--0--0--0--0--0--0--0--0--0--000---0--0--0--0--0--0--0--000-000-000-000--|


   P.M.         P.M.        P.M.		P.M.
  _____    _   _   _   _  ________  _   _  ________________
|-------------------------------------------------------------------------|
|-------------------------------------------------------------------------|
|-------------------------------------------------------------------------|
|-------------------------------------------------------------------------|
|--------2-----2-----2-----2-----2--------2-----2-----2-------------------|
|--0--0--0--0--0--0--0--0--0--0--0--0--0--0--0--0--0--0--0--0--000-000----|
|							                  |
|						 	                  |
|-------------------------------------------------------------------------|
|-------------------------------------------------------------------------|
|-------------------------------------------------------------------------|
|--9--9--9--9---9--9b(11)~~(11)~(11)~--7--7--7--7---7--7b(8)~r7--5--4--5--|
|-------------------------------------------------------------------------|
|-------------------------------------------------------------------------|

   P.M.       P.M.
  _____  _   _   _   _  
|-------------------------------------------------------------|-----------
|-------------------------------------------------------------|-----------
|-------------------------------------------------------------|-----------
|------------------------------------5-5-5-5-5-5--4-4-4-4-4-4-|-----------
|--------2-----2-----2-----2-----2---3-3-3-3-3-3--2-2-2-2-2-2-|--------2--
|--0--0--0--0--0--0--0--0--0--0--0----------------------------|--0--0--0--
|						              |
|               P.H.				              |
|-------------------------------------------------------------|-----------
|-------------------------------------------------------------|--12-12-12-
|-------------------------------------------------------------|-----------
|--9--9--9--9---9b(11)~~--7---5---7---5  2--5---7--4~~~-------|-----------
|-------------------------------------------------------------|-----------
|-------------------------------------------------------------|-----------
 
  
     P.M.              P.M.        P.M.         P.M.
   _     _     _    __________    _     _    _____________
|----------------------------------------------------------|--------------
|----------------------------------------------------------|--------------
|----------------------------------------------------------|--------------
|----------------------------------------------------------|--------------
|-----2-----2-----2------------2-----2-----2---------------|--------2-----
|--0--0--0--0--0--0-000--0--0--0--0--0--0--0--0--0-000-000-|--0--0--0--0--
|							   |
|					       	           |
|----------------------------------------------------------|--------------
|--12--12b(14)~~(14)~(14)~-10-10-10-10--10b(12)~r10-8-7-8--|--12-12-12-12-
|----------------------------------------------------------|--------------
|----------------------------------------------------------|--------------
|----------------------------------------------------------|--------------
|----------------------------------------------------------|--------------

  P.M.       P.M.
  _____  _   _   _   _  
|-------------------------------------------------|
|-------------------------------------------------|
|-------------------------------------------------|
|-----------------------5-5-5-5-5-5--4-4-4-4-4-4--|
|--2-----2-----2-----2--3-3-3-3-3-3--2-2-2-2-2-2--|
|--0--0--0--0--0--0--0----------------------------|
|				                  |
|				with bar                 |
|-------------------------------------------------|
|--12b(14)~-12--10--8--10--8-5--8-10  --7~~~~-----|
|-------------------------------------------------|
|-------------------------------------------------|
|-------------------------------------------------|
|-------------------------------------------------|


fig 3 2x

fig 2 2x

fig 3 2x

fig 5
|-------------------------------------------------------------------------|
|-------------------------------------------------------------------------|
|-------------------------------------------------------------------------|
|--9--9--9--9----9b(11)~~(11)~(11)~--7--7--7--7----7b(8)~r7---5--4--5-----|
|-------------------------------------------------------------------------|
|-------------------------------------------------------------------------|
|									  |
|									  |
|-------------------------------------------------------------------------|
|--12-12-12-12--12b(14)~~(14)~(14)~--10-10-10-10--10b(12)~r10-8--7--8-----|
|-------------------------------------------------------------------------|
|-------------------------------------------------------------------------|
|-------------------------------------------------------------------------|
|-------------------------------------------------------------------------|


|-------------------------------------------------------------|
|-------------------------------------------------------------|
|-------------------------------------------------------------|
|--9--9--9--9---9b(11)~~--7---5---7---5--2--5---7--4~~~-------|
|-------------------------------------------------------------|
|-------------------------------------------------------------|
|                                                             |
|                                                             |
|-------------------------------------------------------------|
|--12-12-12-12--12b(14)~~-10--8--10---8--5--8---10--7~~~------|
|-------------------------------------------------------------|
|-------------------------------------------------------------|
|-------------------------------------------------------------|
|-------------------------------------------------------------|


During the Harmony Part a 3rd Gtr. plays the same as in fig 4. I didn't
post it, cause I thought that hardly nobody has got 3 guitarists. But
if you want the fill, e-mail me.


  fig 6  Same as above...there is also a 3rd guitar...
   
    Gtr. 1
|--19-19-19-19--19b(21)~~(21)~-17-17-17-17--17b(19)~r17-15-14-15--|--19-19-
|-----------------------------------------------------------------|--------
|-----------------------------------------------------------------|--------
|-----------------------------------------------------------------|--------
|-----------------------------------------------------------------|--------
|-----------------------------------------------------------------|--------
|                                                                 |
|   Gtr. 2                                                        |
|-----------------------------------------------------------------|--------
|--12-12-12-12--12b(14)~~(14)~-10-10-10-10--10b(12)~r10--8--7--8--|--12-12-
|-----------------------------------------------------------------|--------
|-----------------------------------------------------------------|--------
|-----------------------------------------------------------------|--------
|-----------------------------------------------------------------|--------



|--19-19--19b(21)~19-17-15-17--15-12-15-17-14~~~--|
|-------------------------------------------------|
|-------------------------------------------------|
|-------------------------------------------------|
|-------------------------------------------------|
|-------------------------------------------------|
|                                                 |
|                                                 |
|-------------------------------------------------|
|--12-12--12b(14)~-12--10---8--10-8-5-8-10--7~~~--|
|-------------------------------------------------|
|-------------------------------------------------|
|-------------------------------------------------|
|-------------------------------------------------|


 
  Gtr. 1(clean, w/wah-wah)			    slight bend
|-----------------------------------------------------|--------------------
|------------------11--13-14---------------11--13-14--|--------------------
|-------------------x---x--x----------------x---x--x--|--------------------
|-------------------8--10-11----------------8--10-11--|--------------------
|-----------------------------------------------------|--------------------
|-----------------------------------------------------|--------------------
|						      |
|						      |
| Gtr. 2(dist., w/wah-wah)			      |
|-----------------------------------------------------|--------------------
|------------20sp-----------------------20sp----------|------------20sp----
|--/18b(20)~~-----------------/18b(20)~~--------------|--/18b(20)~~--------
|-----------------------------------------------------|--------------------
|-----------------------------------------------------|--------------------
|-----------------------------------------------------|--------------------


 Gtr.1(clean)  There is another way to play it. So e-mail me for details 
|------------------------------12-13--|------------------------------------
|-------------------11-13-14-15-------|--19-19-19-19--19-19b(21)~~(21)~-17-
|---------7-8-10-12-------------------|------------------------------------
|-8-10-11-----------------------------|------------------------------------
|-------------------------------------|------------------------------------
|-------------------------------------|------------------------------------
|				      |
|		       		      |
| Gtr. 2(clean)			      |
|------------------------------12-13--|------------------------------------
|-------------------11-13-14-15-------|------------------------------------
|---------7-8-10-12-------------------|------------------------------------
|------11-----------------------------|------------------------------------
|-------------------------------------|------------------------------------
|-------------------------------------|------------------------------------


Interlude E: Gtr. 1(dist.)
-----------------------------|---------------------------------------------
-17-17-17--(19)r17-15-14-15--|--19-19-19-19--19-(21)r19-19b(21)-17-15-17---
-----------------------------|---------------------------------------------
-----------------------------|---------------------------------------------
-----------------------------|---------------------------------------------
-----------------------------|---------------------------------------------

                                       Feedback at the Beginning
-------------------------------------------|-------------------------------
--15-12-15-17-14~~(w/bar)~~~~~-------------|-------------------------------
-------------------------------------------|----/17--17sp--16-17sp--16-17sp
-------------------------------------------|-------------------------------
-------------------------------------------|-------------------------------
-------------------------------------------|-------------------------------
                                           |
	(Gtr.2,w/dist)                     |				
-------------------------------------------|-------------------------------
-------------------------------------------|-------------------------------
-------------------------------------------|-------------------------------
-------------------------------------------|-------------------------------
---------------3---3----3-----3---3----3---|------3---3----3-----3---3----3
---------------1---1----1-----1---1----1---|------1---1----1-----1---1----1


|-------------------------|------------------------------------------------
|-------------------------|------------------------------------------------
|--16-17sp-16-17sp-16-17--|--15sp--14-15sp--14-15sp--14-15sp-14-15sp-14-15-
|-------------------------|------------------------------------------------
|-------------------------|------------------------------------------------
|-------------------------|------------------------------------------------
|                         |
|                         |
|-------------------------|------------------------------------------------
|-------------------------|------------------------------------------------
|-------------------------|------------------------------------------------
|-------------------------|------------------------------------------------
|-------------------------|--3---3----3-----3---3----3---------------------
|-------------------------|--1---1----1-----1---1----1---------------------


|-------------------------------------------------|------------------------
|-------------------------------------------------|------------------------
|--13sp--12-13sp--12-13sp--12-13sp-12-13sp-12-13--|--10sp--9-10sp--9-10sp--
|-------------------------------------------------|------------------------
|-------------------------------------------------|------------------------
|-------------------------------------------------|------------------------
|						  |
|						  |
|-------------------------------------------------|------------------------
|-------------------------------------------------|------------------------
|-------------------------------------------------|------------------------
|-------------------------------------------------|------------------------
|--3---3----3-----3---3----3----------------------|--3---3----3-----3---3--
|--1---1----1-----1---1----1----------------------|--1---1----1-----1---1--


-----------------------|--1------------------------------------------------
-----------------------|----4-1-4-1---1------------------------------------
---9-10sp-9-10sp-9-10--|------------3---3-1-3-1---1------------------------
-----------------------|------------------------3---3-1-3-1---1------------
-----------------------|------------------------------------3---3-1-3-1----
-----------------------|------------------------------------------------4-1
                       |
                       |
-----------------------|---------------------------------------------------
-----------------------|---------------------------------------------------
-----------------------|---------------------------------------------------
-----------------------|---------------------------------------------------
--3--------------------|--3---3----3-----3---3----3------------------------
--1--------------------|--1---1----1-----1---1----1------------------------
  

              pick scratch
------------|-----------------|
------------|-----------------|
------------|-----------------|
------------|-----x ----------|
------------|-----x  ---------|
(14)~~~~~~--|------- ---------|
                              |
                              |
------------------------------|
------------------------------|
------------------------------|
------------------------------|
---3---3----3-----3---3----3--|
---1---1----1-----1---1----1--|

                                                        Outro       P.M.
  Both Guitars                                                     _____
||-------------------------|-------------------------|||-------------------
||-------------------------|-------------------------|||-------------------
||o------------------------|------------------------o|||o------------------
||o------------------------|------------------------o|||o------------------
||---3--3---3----3--3---3--|--3--3---3----2--2---2---|||---2--5--7--------7
||---1--1---1----1--1---1--|--1--1---1----0--0---0---|||---0--3--5--0--0--5



    P.M.        P.M.                     End        P.M.       P.M.
    _____       _____	                           _____       _____
--------------------------------------||-----------------------------------|
--------------------------------------||-----------------------------------|
-------------------------------------o||-----------------------------------|
-------------------------------------o||-----------------------------------|
-9--------9--10-----------------------||--2--5--7--------7--9-------9--10--|
-7--0--0--7---8--0--0--7h8p7--5 3--5--||--0--3--5--0--0--5--7--0--0-7--8---|




Feel free to e-mail me, if you have any suggestions, comments etc...

My e-mail: Neon7@gmx.net


key: h=hammer on
     p=pull off
     /=slide up
      =slide down
     P.M.=palm mute (the notes with a line above)
     ~=vibrato (fret hand)
     b=bend
     r=release bend
     sp=speed picking
     P.H.=pinch harmonic
     <5>=natural harmonic
  development and support by
dmitry ivanov