rock
 
|tablatures   |lyrics   |discussion forums   |more tabs @ XGuitar.com

Megadeth tabs

Dread And The Fugitive Mind guitar tab

Dread And The Fugitive Mind - Megadeth

Capitol Punishment: The Megadeth Years

Transcribed by: IcedDeth
The Megadeth Sanctuary
http://personal.netwrx.net/kweber



E----------------------
B----------------------
G----------------------
D----------5---4-------
A--2-------3---2-2-----
E--0-0-2-3---0---0-----


  Pre-Chorus
E-----------------------------------------------------
B-----------------------------------------------------
G-----------------------------------------------------
D--7---5-5---7-7---5-5---4-4---5-5---4-4---5-5--------
A--7---7-7---7-7---7-7---5-5---5-5---5-5---5-5--------
E----X-----X-----X-----X-----X-----X-----X------------


E-----------------------------------------------------
B-----------------------------------------------------
G-----------------------------------------------------
D----2-2---4-4---2-2---4-4---5-5---4-4---7-7---5-5----
A----3-3---3-3---3-3---3-3---5-5---5-5---7-7---7-7----
E--X-----X-----X-----X-----X-----X-----X-----X--------


  Chorus
E-----------------------------------
B-----------------------------------
G------4-----4-----4-----4-----4----
D--0-2---0-2---0-2---0-2---0-2------
A-----------------------------------
E-----------------------------------


E-----------------------------------
B-----------------------------------
G------4-----4-----4-----4-----4----
D----2-----2-----2-----2-----2------
A--3-----3-----3-----3-----3--------
E-----------------------------------


E-----------------------------------
B-----------------------------------
G------4-----4-----4-----4-----4----
D----2-----2-----2-----2-----2------
A--0-----0-----0-----0-----0--------
E-----------------------------------


E-----------------------------------
B-----------------------------------
G-----------------------------------
D----1-4---1-5---1-4---1-5---4-1----
A--2-----2-----2-----2-----2--------
E-----------------------------------


 Interlude Riff
E---------------
B---------------
G---------------
D---------------
A----------2----
E--0000000-0----


   2X
E-----------------------------------------------------------
B-----------------------------------------------------------
G------4-/5-4-------4-/5-4-------4-/5-4---------------------
D--0-2--------2---2--------2---2--------2---1-4-/5-4-1------
A---------------3------------0------------2-----------------
E-----------------------------------------------------------


E------------------------------------
B------------------------------------
G------4-----2-----0-----2---0-------
D--0-2---0-2---0-2---0-2---0---0-2---
A------------------------------------
E------------------------------------


E------------------------------------
B------------------------------------
G------4-----2-----0-----2---0-------
D----2-----2-----2-----2---------2---
A--3-----3-----3-----3-----3---3-----
E------------------------------------


E------------------------------------
B------------------------------------
G------4-----2-----0-----2---0-------
D----2-----2-----2-----2---------2---
A--0-----0-----0-----0-----0---0-----
E------------------------------------


E------------------------------------
B------------------------------------
G------------------------------------
D----1-4---1-5---1-4---1-5---4---1---
A--2-----2-----2-----2-----2---2-----
E------------------------------------


  Guitar 1
E-----------------------
B-----------------------
G-----------------------
D----1-4-/7-5-4-2--4----
A--2--------------------
E-----------------------

  Guitar 2
E-----------------------
B-----------------------
G-----------------------
D----4-7-/10-9-7-5--7---
A--5--------------------
E-----------------------



E---------------------------------
B---------------------------------
G---------------------------------
D--9-------------------------9----
A--7-7-7-7-7-7-7-7-7-7-7-7-7-7----
E---------------------------------


E---------------------------------
B---------------------------------
G---------------------------------
D--5-------------------------5----
A--3-3-3-3-3-3-3-3-3-3-3-3-3-3----
E---------------------------------

E---------------------------------
B---------------------------------
G---------------------------------
D--2-------------------------2----
A--0-0-0-0-0-0-0-0-0-0-0-0-0-0----
E---------------------------------


E---------------------------------
B---------------------------------
G---------------------------------
D--4-------------5-----4----------
A--2-2-2-2-2-2-2-3-3-3-2-2-2-2----
E---------------------------------



E---------------------------------------------
B---------------------------------------------
G---------------------------------------------
D---------------------5---4---------5---4-----
A--2-------2--2-------3---2-2-------3---2-2---
E--0-0-2-3-0--0-0-2-3---0---0-0-2-3---0---0---
  development and support by
dmitry ivanov