rock
 
|tablatures   |lyrics   |discussion forums   |more tabs @ XGuitar.com

Megadeth tabs

Disconnect guitar tab

Band:Megadeth
Track:Disconnect
Tabber:Ian
Tuning:Standard(EADGBe)

This aint a song thats all that hard relly exept the solo which I
cant figure out:(. Other than that this is perfect i think.

Intro:
e----------------------
B----------------------
G----------------------
D---5---4-----2----4-5-
A--7---5---3~-----6----
E-0---0---0------7-----
(This is also the chorus part to)

Verse:
e--------------------------------
B--------------------------------
G--------------------------------
D-----4-0-2-----4-0-2------------
A---------------------------10-9-
E-0-0-------0-0-------00--7-8----

Interlude:
e-----------------------------------
B-----------------------------------
G-----------------------------------
D---------------------------------2-
A-0-0-3-0-0-5-0-0-6-0-0-5-0-0-3-0-0-
E-----------------------------------
(Do this twice)

This is all I know of the solo but I think it's nearly perfect.
it'se-15-12-0-15-12-0-15-12-0-15-12-0-14-11-0-14-11-0-14-11-0-14-11-0-
B---------------------------------------------------------------------
G---------------------------------------------------------------------
D---------------------------------------------------------------------
A---------------------------------------------------------------------
E---------------------------------------------------------------------

e-12-8-0-12-8-0-12-8-0-12-8-0-11-7-0-11-7-0-11-7-0-11-7-0-
B---------------------------------------------------------
G---------------------------------------------------------
D---------------------------------------------------------
A---------------------------------------------------------
E---------------------------------------------------------

e-15-12-0-15-12-0-15-12-0-15-12-0-19-15-0-19-15-0-19-15-0-19-15-0-
B-----------------------------------------------------------------
G-----------------------------------------------------------------
D-----------------------------------------------------------------
A-----------------------------------------------------------------
E-----------------------------------------------------------------

e-20-15-0-20-15-0-20-15-0-20-15-0-19-14-0-19-14-0-19-14-0-19-14-0-
B-----------------------------------------------------------------
G-----------------------------------------------------------------
D-----------------------------------------------------------------
A-----------------------------------------------------------------
E-----------------------------------------------------------------

The rhythem part for the solo done by the other guitarist goes
like this.

e-------------------------------------------------------------------------
B-------------------------------------------------------------------------
G-------------------------------------------------------------------------
D-------------------------------------------------------------------------
A-----------------9-9-9-9-9-9-9-9-10-10-10-10-10-10-10-10-7-7-7-7-7-7-7-7-
E-0-0-0-0-0-0-0-0-7-7-7-7-7-7-7-7-8--8--8--8--8--8--8--8--5-5-5-5-5-5-5-5-
Thanks for checking my tab and feel free to comment/rate it as well or
as poorly as you want.Peace out and smoke weed:)!
  development and support by
dmitry ivanov