rock
 
|tablatures   |lyrics   |discussion forums   |more tabs @ XGuitar.com

Megadeth tabs

Disconnect bass tab

Artist: Megadeth
Song: Disconnect
Album: The World Needs A hero
bassist: David Ellefson

Intro... Just figure out the rythm by listening, its easy...
|---||---------------||------------|
|---||o-------4-5---o||------------|
|---||o----6--------o||------------|
|-0-||--0---------0--||--6-5-3-2-0-|



Fill that he fits at the end of the rythm sometimes...
|-----0-|
|---1---|
|-2-----|
|-------|

Verse 1,2,3
|-------------------------------------------------------------------|
|-------------------------------------------------------------------|
|-------------------------------------------------------------------|
|-0-0-0-0-0-0-0-0-0-0-0-0-0-0-0-0-0-2-2-2-2-2-2-2-2-3-3-3-3-3-3-3-3-|

Prechorus
|-----------------------------|
|-----------------------------|
|-----------5-----------5---6-|
|-5-5-7-5-5---5-5-7-5-5---5---|



Chorus
                            1.          2.
||--------------------------|---------||--------||----|
||o-----5-----4------2------|----4-5-o||-------o||----|
||o---7-----5-----3----3-2--|-6------o||-0-----o||----|
||--0-----0-----0-----------|---------||---3-2--||----|


Bridge ( The best part ;-D )  You have to figure out when to play which part...
I guess you can do it easyli ;o)
|--------------------------------------------------------------------|
|--------------------------------------------------------------------|
|-----------------------0-----0-2-3-3-3-3-3-3-3-2-3-2-----3-2--------|
|-0-0-0-0-0-0-0-0-0-2-3---2-3-------------------------3-2-----3-2----|


|--------------------------------------------------------------------|
|--------------------------------------------------------------------|
|-----------------2-2-2-2-2-2-2-2-3-3-3-3-3-3-3-3-2-2-2-2------------|
|-0-0-0-0-0-0-0-0-----------------------------------------3-3-3-3----|


Then you come back with the verse and the ending is a big 0 on the E string...
  development and support by
dmitry ivanov