rock
 
|tablatures   |lyrics   |discussion forums   |more tabs @ XGuitar.com

Megadeth tabs

Die Dead Enough bass tab

artist - megadeth
song - die dead enough
album - system has failed
transcribed by Garry Massie  (MODULISTIC_TERROR@hotmail.com)

Tuning: Standard

Riff 1
G|-----------------------------------|
D|-------0---2-0---------------------|
A|-----2---2-----2-----------0-1-2---|
E|-2-3-------------3-2-2-2-2-------3-|



Riff 2

G|---------------------------------|
D|---------------------------------|
A|---------0-1-2-----------0-1-2---|
E|-0-0-0-0-------3-0-0-0-0-------3-|

   "It's twilight and."


Riff 3

G|---------------------------------|
D|---------------------------------|
A|-2-2-2-2-2-2-2-2-0-0-0-0-0-0-0-0-|
E|---------------------------------|
   "Oh, I can't punch hard enough."

G|---------------------------------|
D|---------------------------------|
A|---------------------------------|
E|-3-3-3-3-3-3-3-3-0-0-0-0-0-0-0-0-|
   ".I can't kick high enough."

G|---------------------------------|
D|---------------------------------|
A|-2-2-2-2-2-2-2-2-0-0-0-0-0-0-0-0-|
E|---------------------------------|
   ".I can't shoot straight."

G|---------------------------------|
D|---------------------------------|
A|---------------------------------|
E|-3-3-3-3-3-3-3-3-0-0-0-0-0-0-0-0-|
   ".I can't hold on enough."

G|---------------------------------|
D|---------------------------------|
A|-2-2-2-2-2-2-2-2-0-0-0-0-0-0-0-0-|
E|---------------------------------|
   "Oh, I can't stay down."

G|---------------------------------|
D|---------------------------------|
A|---------------------------------|
E|-3-3-3-3-3-3-3-3-0-0-0-0-0-0-0-0-|
   ".I can't take pain enough."

G|---------------------------------|
D|---------------------------------|
A|-2-2-2-2-2-2-2-2-0-0-0-0-0-0-0-0-|
E|---------------------------------|
   ".I can't bleed fast."

G|-------------------------------------------------|
D|-------------------------------------------------|
A|-----------------------------------------0-1-2---|
E|-3--3-3-3-3-0-2-3--3-3-3-3-3-3-3-3-3-3-3-------3-|

   ".can't die dead enough!"


Play Riff 2   "The air is thick."


G|---------------------------------|
D|---------------------------------|
A|-2-2-2-2-2-2-2-2-0-0-0-0-0-0-0-0-|
E|---------------------------------|
   "Oh, I can't punch hard enough."


G|---------------------------------|
D|---------------------------------|
A|---------------------------------|
E|-3-3-3-3-3-3-3-3-0-0-0-0-0-0-0-0-|
   ".I can't kick high enough."

G|---------------------------------|
D|---------------------------------|
A|-2-2-2-2-2-2-2-2-0-0-0-0-0-0-0-0-|
E|---------------------------------|
   ".I can't shoot straight."

G|---------------------------------|
D|---------------------------------|
A|---------------------------------|
E|-3-3-3-3-3-3-3-3-0-0-0-0-0-0-0-0-|

   ".I can't hold on enough."
G|---------------------------------|
D|---------------------------------|
A|-2-2-2-2-2-2-2-2-0-0-0-0-0-0-0-0-|
E|---------------------------------|
   "Oh, I can't stay down."


G|---------------------------------|
D|---------------------------------|
A|---------------------------------|
E|-3-3-3-3-3-3-3-3-0-0-0-0-0-0-0-0-|
   ".I can't take pain enough."

G|---------------------------------|
D|---------------------------------|
A|-2-2-2-2-2-2-2-2-0-0-0-0-0-0-0-0-|
E|---------------------------------|
   ".I can't bleed fast."

G|-----------------------------------------------|
D|----4---5--------------------------------------|
A|-5--5---5-----5----------------5-5-5-5-5-5-5-5-|
E|-3--3-3-3-0-2-3--3-3-3-3-3-3-3-3-3-3-3-3-3-3-3-|

   "...can't die dead enough!"


Riff 4

G|----------------------------------|
D|----------------------------------|
A|-7-7-7-7-7-7-7-7------------------|
E|-----------------7-7-7-7-7-7-7-7-7|
   "I don't know."

G|-----------------------------------|
D|-----------------------------------|
A|-5-5-5-5-5-5-5-5-------------------|
E|-----------------5-5-5-5-5-5-5-5-5-|

   "And I don't know."


G|----------------------------------|
D|----------------------------------|
A|-7-7-7-7-7-7-7-7------------------|
E|-----------------7-7-7-7-7-7-7-7-7|
   "I don't know."
      					Play 2x
G|-----------------------------------|
D|-----------------------------------|
A|-5-5-5-5-5-5-5-5-------------------|
E|-----------------5-5-5-5-5-5-5-5-5-|

   "And I don't know."

G|---------------------------------|
D|---------------------------------|
A|-3-3-3-3-3-3-3-3-----------------|
E|----------------3-3-3-3-3-3-3-3-3|

   "Something's compelling."
e|-------------------------------|
B|-------------------------------|
G|-------------------------------|
D|-------------------------------|
A|-2----3-2----3-2-3-2-3-0-1-2---|
E|-----------------------------3-|
   ".to run into the dark."


Riff 5

G|-------------------------------|
D|-------------------------------|
A|------------5------------5-----|
E|-0-----3-2-----0-----3-2---3-2-|


G|-------------------------------|
D|-------------------------------|
A|------------5----------0-1-2---|
E|-0-----3-2-----0-----3-------3-|


Riff 6 (Solo Rhythm)              x4

G|---------------------------------|
D|-2-1-2-----------------------4-5-|
A|---------2-3--2-0----------3-----|
E|-------------------3-2-1-2-------|


Riff 6a (Solo Rhythm)

G|---------------------------------|
D|---------------------------------|
A|-2-2-2-2-2-2-2-2-2-2-2-2-2-2-2-2-|
E|-0-0-0-0-0-0-0-0-0-0-0-0-0-0-0-0-|


Riff 5a (Solo Rhythm)

G|--------------------------------------|
D|--------------------------------------|
A|--------------5----------------5------|
E|-0000000-3-2------0000000-3-2-----3-2-|

G|--------------------------------------|
D|--------------------------------------|
A|--------------5-------------0-1-2-----|
E|-0000000-3-2------0000000-3-------3---|
  development and support by
dmitry ivanov