rock
 
|tablatures   |lyrics   |discussion forums   |more tabs @ XGuitar.com

Megadeth tabs

Diadems guitar tab

From
Jim Johnson

 
                               DIADEMS
                               Megadeth
                      Hidden Treasures/Demon Knight

Notes:

This is what sounds like a combination of 2 guitar parts, some
of it is way off, but maybe by posting what I know of it, 
some of you may be able to figure out parts and correct em

Eb tuning



|------------7---------------------------------------------|
|---------/8----7h8p7-------5---0--------------------------|
|---------------------7------------------------------------|
|-----------------------------------7--9--7h9p7----5-------|
|-----------------------------------------------9-----7----|
|-0-------------------------------0------------------------|

|-----0-------------------|----0---------------------------|
|-----0-------------------|----0---------------------------|
|-------------------------|--------------------------------|
|-------------0--4--2-----|--------------------------------|
|----------------------2--|-------------2-----0------------|
|-0-------0---------------|-0------0--3----2---------------|


P.M. ---
|----------------------------------------------------------|
|----------------------------------------------------------|
|----------------------------------------------------------|
|-------------------------------------------2--------------|
|-5-------4--5--4-2---8--8--8--7------5-----2--------------|
|-3---0-0-2--3--2-0---6--6--6--5------3-----0--------------|

|----0---------------------|------0------------------------|
|----0---------------------|------0------------------------|
|--------------------------|-------------------------------|
|---------------0--4--2----|-------------------------------|
|------------------------2-|--------------2------0---------|
|-0-------0----------------|--0-----0--3-----2-------------|


P.M.  -         ----------------------------
|----------------------------------------------------------|
|----------------------------------------------------------|
|----------------------------------------------------------|
|-2----2--4------------------------------------------------|
|-2----2--2--4--5--5--5---3---4---5---4----3---------------|
|-0----0-----2--3--3--3---1---2---3---2----1---------------|



|----------------------------------------------------------|
|----------------------------------------------------------|
|-9----------9-----x-x--x-x-----7--------------------------|
|-9--x-x-x---9-8---x-x--x-x--8--7--------------------------|
|-7--x-x-x---7-8---x-x--x-x--8--5--7--8--7---5-------------|
|----x-x-x-----6---x-x--x-x--6-----5--6--5---3-------------|

|----------------------------------------------------------|
|----------------------------------------------------------|
|10--9--------9----x-x--x-x-----7--------------------------|
|10--9-x-x-x--9-8--x-x--x-x--8--7--------------------------|
|-8--7-x-x-x--7-8--x-x--x-x--8--5--7--8--7---5-------------|
|------x-x-x----6--x-x--x-x--6-----5--6--5---3-------------|



That's all I know.
  development and support by
dmitry ivanov