rock
 
|tablatures   |lyrics   |discussion forums   |more tabs @ XGuitar.com

Megadeth tabs

Dawn Patrol guitar tab

From: Alan Harder 

Dawn Patrol

- Megadeth

G |-------|-----------------------------|------------------------------|
D |-------|.----------------------------|--------------8/9-----7/8-----|
A |-------|.5h7----7--7-7-5h8----8--8-8-|5h7----7--7-7-----9\8-----8\7-|
E |12\----|-----0-------------0---------|----0-------------------------|


                                1.=========================|
G |----------------------------|--------------------2--0---|
D |----------------------------|--------------------------.|
A |5h7----7--7-7-5h8----8--8-8-|5h7----7--7\-1-0----------.|
E |----0-------------0---------|----0------------3---------|


   2.========================
G |-------------------------|
D |-------------------------|
A |5h7----7--7\-3-2-0-------|
E |----0---------------0----|

Same pattern continues with lyrics...
  development and support by
dmitry ivanov