rock
 
|tablatures   |lyrics   |discussion forums   |more tabs @ XGuitar.com

Megadeth tabs

Captive Honour bass tab

Band: Megadeth
Song: Captive honour
Album: Countdown to extinction


Riff 1
G----------------------------------------------------
D----------------------------------------------------
A----------------------------------------------------
E--0-3-5-3-2---------------------------------------

Riff 2
G----------------------------------------------------
D----------------------------------------------------
A----------------------------------------------------
E--0-3-2--------------------------------------------

Riff 3
G----------------------------------------------------
D----------------------------------------------------
A----------------------------------------------------
E--0-3-5-0-3-0-2-3-5-0-3-0-2-------------------

Riff 4
G----------------------------------------------------
D----------------------------------------------------
A---------3------------------------------------------
E-2-1-0----3-2-1-0--------------------------------

Riff 5
G---------------------------------------------
D---------------------------------------------
A-3------------------------------------------
E----3-2-1-0--------------------------------

Riff 6
G----------------------------------------------------
D----------------------------------------------------
A--3-2-0-2-0---0-2--------------------------------
E---------------2------------------------------------

Riff 7
G----------------------------------------------------
D----------------------------------------------------
A-2h3-----------------------------------------------
E-------2h3-2-2p1-1p0----------------------------




Riff 8
G----------------------------------------------------
D----------------------------------------------------
A-2h3---------------------------------------------
E---------2h3-2222222222222222222222222etc

Riff 9
G----------------------------------------------------
D----------------------------------------------------
A------2-0-2---------------------------------------
E-2-1-----------------------------------------------

Riff 10
G----------------------------------------------------
D----------------------------------------------------
A------2---3-2-0-2-0---0-2-----------------------
E-2-1------------------2----------------------------

Riff 11
G----------------------------------------------------
D----------------------------------------------------
A------0---0-2------0------------------------------
E-2-2---1------2-2---1-3-3--------------------------

Riff 12
G----------------------------------------------------
D----------------------------------------------------
A---------3-2-0-0----------------------------------------
E-2-1-0------------3-1----------------------------------


Riff 13
G----------------------------------------------------
D----------------------------------------------------
A-------2-0-2----3-2-0-2-0---0-2-------------------------------
E--2-1---------2--------------2------2---------------------

Order:
Riff 1 x 4
Riff 2 x 4
Riff 3 x 1
Riff 4 x 1
Riff 5 x 3
Riff 6 x 1
Riff 7 x 4
Riff 8 x 1
Riff 3 x 1
Riff 9 x 2
Riff 10 x 4
Riff 9 x 2
Riff 11 x 4
Riff 10 x 4
Riff 9 x 2
Riff 11 x 4
Riff 12 x 4
Riff 13 x 1
  development and support by
dmitry ivanov