rock
 
|tablatures   |lyrics   |discussion forums   |more tabs @ XGuitar.com

Megadeth tabs

Breakpoint guitar tab

BREAKPOINT
[Megadeth - Hidden Treasures]
Transcribed by Mark Yeary
Five Magics - http://www.nebula.on.ca/heer/fivemagics/index.html


Standard Tuning

intro:  (play 7 times)

D)---------------------------------------------
A)---------------------------------------------
E)---2--2--2----2--2-----2--------0-3-2-0-0----

then:

D)---4----2----4-----
A)---4----2----4-----
E)---2----0----2-----

repeat.   Then the verse:

D)---------------------------------------------
A)---------------------------------------------   x 4
E)---2--2--2-----2--2-----2-------0-3-2-0-0----

D)----5-----2-----5------
A)----5-----2-----5------
E)----3-----0-----3------

D)---------------------------------------------
A)---------------------------------------------     x 2
E)---2--2--2-----2--2-----2-------0-3-2-0-0----

D)----5-----------------------------------
A)----5-----------------------------------
E)----3----------0--0--0-----3--3--3------

pre chorus:  ("hypocrite"....)

G)--------------------------------------2------------------------
D)------------4---------------5--4-----------5--2----------------
A)----------------------------------------------------------4----
E)--0--2------------0--3--------------------------------2--------


D)------------4---------------5--4-------2----4-----
A)---------------------------------------2----4-----
E)--0--2------------0--3-----------------0----2-----


chorus:

D)---5----------8------------------------
A)---3-----5----6-----8----7---10--------
E)---------3----------6----5----8--------

first time:

D)--------------------------10--9--8--7---------------------
A)--9-8-7-6---------------------------------10--9--8--7-----
E)---------------9-8-7-6------------------------------------

second time:

D)--9-8-7-6-----10--9--8--7-------------------------------------
A)------------------------------10--9--8--7---------------------
E)-----------------------------------------------10--9--8--7----

third time:

D)------------------------------10--9--8--7----------------------
A)--9-8-7-6---------------------------------------10--9--8--7----
E)-----------------9-8-7-6----------------------------------------

then:

D)---5-----------8------------5------------8---------------
A)---3-----5-----6-----8------3------5-----6------8--------
E)---------3-----------6-------------3------------6--------

then go back to the verse and repeat twice.  this is the slow part:

E)-----------------------------------------------------------------------
B)--------------------2--------------------------------------2-----------
G)---------------------------4-------------------------------------4-----
D)------------4-------------------------------------4--------------------
A)-------2------------------------------------2--------------------------
E)--2---------------------------------2--3-------------------------------


E)-------------------------------------------------------------------------
B)--------------------------2------------------------------------2---------
G)--------------------------------4------------------------------------4---
D)-----------------4-------------------------------------4-----------------
A)-----------2-------------------------------------2-----------------------
E)--3--4----------------------------------4--3----------------------------


E)--------------------------------------------------------------------------
B)--------------------------2-------------------------------------2---------
G)--------------------------------4-------------------------------------4---
D)-----------------4-------------------------------------4------------------
A)-----------2-------------------------------------2------------------------
E)--3--2----------------------------------2--3------------------------------


E)-------------------------------------------------------------------
B)------------------------2----------------------------------2--4----
G)------------------------------4------------------------------------
D)-----------------4-----------------------------------4-------------
A)-----------2-----------------------------------2-------------------
E)--3--4--------------------------------4--5------------------------


E)---------------------------------------------------------------------
B)-----------------------2----------------------------------2----------
G)----------------------------4-----------------------------------4----
D)----------------4----------------------------------4-----------------
A)----------2----------------------------------2-----------------------
E)--5--2-----------------------------2--3------------------------------


E)---------------------------------------
B)------------------------2--------------
G)------------------------------4--------
D)----------------4----------------------
A)----------2----------------------------
E)--3--4---------------------------------

"sedate me?"  "cool!"

D)-----------------------------------------
A)--------2--2--2-----------4--4--4-----
E)---4----------------4-------------------

"straitjacket?"

D)----------------------------------------------------------
A)----------------------------------------------------------
E)--2-2-2-2-2-2-2-2---3-3-3-3-3-3-3-3---4-4-4-4-4-4-4-4-----

D)----------------------
A)----------------------
E)--5-5-5-5-5-5-5-5-----

then:

D)---------------------------------------------------
A)---------------------------------------------------
E)---2--2--2-----2--2-----2--------0-3-2-0-0---------

repeat several times.  then:

D)---4-----2-----4-----
A)---4-----2-----4-----
E)---2-----0-----2-----
  development and support by
dmitry ivanov