rock
 
|tablatures   |lyrics   |discussion forums   |more tabs @ XGuitar.com

Megadeth tabs

Breadline Album Version guitar tab


Breadline

Megadeth - Risk

Transcribed by the people at The Megadeth Sanctuary
http://personal.netwrx.net/kweber/index.html
kweber@netwrx.net


Intro & verse

E---------------------------------------------------------------
B---------------------------------------------------------------
G--------------------------------------------------0---2-0------
D-------7-----6-----6-----4----------5-----4-----2---2-----2----
A-----7-----7-----6-----6---6------5-----5-----4-------------4--
E---0-----0-----0-----0-------0-0------0-----0------------------


Bridge

E---------------------------------------
B---------------------------------------
G---------------------2------0----------
D------2-------0----2------2------------
A----2-------2----0------3--------------
E--0-----0-3--------------------3-------


Chorus


E-------------------------------------------------------------
B-------------------------------------------------------------
G-------------------------------------------------------------
D----9----9---------------------------------------------------
A----7----6----7--7--7--7--7--7--4-4--4---7-9--2---5---7------
E--------------5--4--5--7--5--4--2-0--2---5-7--0---3---5------



Guitar solo

E----------------------------------------------------------------
B----------------------------------------------------------------
G----------------------------------------------------------------
D-------6-----4-4-4--4--6----4-4-4-6-----------------------------
A-----4-----4------------------------7-6-7-----------------------
E---5-----5---------------X\-------------------------------------


E--0-0-0-0-0-0-0-0-0-0-------------------------------------------
B--5-5-4-4-2-2-0-0-0-0-------------------------------------------
G------------------2-2---4-4-4---------------4-4-4-6-------------
D-------------------------------7-6-7----------------7-6-4-------
A----------------------------------------------------------------
E--------------------------------------X\------------------------


E----------------------/17-16-14-----14---17------------------------
B--------------------------------17--17/--20/--22/--22/--22/--22/---
G--/14-13-11-----11-11----------------------------------------------
D------------14-----------------------------------------------------
A-------------------------------------------------------------------
E-------------------------------------------------------------------


Outro

E--17/-17/-17/--17/-17/-17/--17/-17/-17/-17/-17/-17/-17/-17/-17/\---
B-------------------------------------------------------------------
G-------------------------------------------------------------------
D-------------------------------------------------------------------
A-------------------------------------------------------------------
E-------------------------------------------------------------------


E--15-12------------------------------------------------------------
B--------15-12--------------------------12/--12/--12/--12/----------
G--------------15-14-12----------12-----14/--14/--14/--14/----------
D-----------------------14-12-14----14------------------------------
A-------------------------------------------------------------------
E-------------------------------------------------------------------

    6X
E--12-10-------|----------------------------------------------------
B--------12-10-|-------12-10----------------------------------------
G--------------|--12-9-------12-9-----------------------------------
D--------------|------------------12-9------------------------------
A--------------|-----------------------12-10------------------------
E--------------|-----------------------------12-10\--7-5-3-0--------

					8X
E--------------------------------------|-12-15-12-------|--------------
B--------------------------------12-15-|----------15-12-|--------------
G-----------------------12-14-15-------|----------------|--------------
D-----------------12-14----------------|----------------|--------------
A--------12-13-14----------------------|----------------|--------------
E--12-15-------------------------------|----------------|--X\X\X\X\----


  development and support by
dmitry ivanov