rock
 
|tablatures   |lyrics   |discussion forums   |more tabs @ XGuitar.com

Megadeth tabs

Anarchy In The Uk guitar tab

ANARCHY IN THE UK
[Megadeth - So Far, So Good... So What?]
Transcribed by Christopher Heer
Five Magics - http://www.nebula.on.ca/heer/fivemagics/index.html


Standard Tuning

Intro
-------------------------------------------------------------------------------
-------------------------------------------------------------------------------
------------------------------------------------------------------7--7---------
-5----------------------------------------3---------------2-------7--7---------
-5----------------------------------------3---------------2-------5--5---------
-3--3-3-3-3-3-3-3-3-3-3-3-3-3-3-3-3-3333--1--1-1-1-1-1-1--0--0-0---------------

Verse
----------------------------------------------------------------------
----------------------------------------------------------------------
-5-------------------------10\9-\-5-------------------------10\9-\-5--
-5-------------------------10\9-\-5-------------------------10\9-\-5--
-3--3-3-3-3-3-3-3-3-3-3-3---8\7-\-3--3-3-3-3-3-3-3-3-3-3-3---8\7-\-3--
----------------------------------------------------------------------
				Chorus
-------------------------------------------------------------------------------------
-------------------------------------------------------------------------------------
--------------------------------------------------------------------------------7--7-
------------------------5-------------------------------3---------------2-------7--7-
-3-3-3-3-3-3-3-3-3-3-3--5-------------------------------3---------------2-------5--5-
------------------------3--3-3-3-3-3-3-3-3-3-3-3-3-3-3--1--1-1-1-1-1-1--0--0-0-------


1st solo rhythm
-------------------------------------------------------------------------------
-------------------------------------------------------------------------------
-------------------------------------------------------------------------------
---------------------------------------------------------5---5-----5---5-------
-55555555-77777777-55555555-77777777-55555555--77777777--5---5-----5---5-------
---------------------------------------------------------3---3-----3---3-------
  development and support by
dmitry ivanov