rock
 
|tablatures   |lyrics   |discussion forums   |more tabs @ XGuitar.com

Megadeth tabs

Addicted To Chaos guitar tab

Addicted to chaos [Megadeth - Youthansia]

Lee Metcalfe (Corrections: Michael James)
2/15/98
Five Magics - http://www.nebula.on.ca/heer/fivemagics/index.htmlEb Tuning

Intro:
------
(Fade in till verse)      

eb---|(Guitar1)------------------------|--------------------------------|
Bb---||--------------------------------|--------------------------------|
Gb---||--------------------------------|--------------------------------|
Db---||5---------------------------5---|4---------------------------5---|
Ab---||7-------------------5h7---------|5-------------------5h7---------|
Eb---||----0---0---0---5h7-------0-----|----0---0---0---5h7-------0-----|   

       play 2X                   [[---in verse--------------------]]
|--------------------------------|--------------------------------||
|--------------------------------|--------------------------------||
|--------------------------------|--------------------------------||
|5---------------------------5---|7---------------------------5---||
|4-------------------5h7---------|5-------------------5h7---------||
|----0---0---0---5h7-------0-----|----0---0---0---5h7-------0-----||

[[---break to chorus------------]]
|--------------------------------|
|--------------------------------|
|--------------------------------|
|5---------------2-------4-------|
|3---------------0-------2-------|
|--------------------------------|


Chorus:
-------
                                                              Play 3x
|(Guitar1)------------------------|--------------------------------||
||--------------------------------|--------------------------------||
||----------------------7---------|--------------------------------||
||------9---------------------7---|------9---------7-----10----9---||
||7-----------10--9---------------|10----------10------------------||
||--------------------------------|--------------------------------||
||                                |                                ||
|(Guitar2)------------------------|--------------------------------||
||--------------------------------|--------------------------------||
||--------------------------------|--------------------------------||
||--------------------------------|--------------------------------||
||------2---------------5---------|------2---------------7---------||
||0-----------3---2-----------2---|3-----------3---5---------(5)h7-||


|--------------------------------|--------------------------------|
|--------------------------------|--------------------------------|
|----------------------7---------|--------------------------------|
|------9---------------------7---|2p0-------2p0-------2p0---------|
|7-----------10--9---------------|----3-2-0-----3-2-0-----3-2-0-0-|
|--------------------------------|--------------------------------|
|                                |    . . .     . . .     . . . . |
|--------------------------------|--------------------------------|
|--------------------------------|--------------------------------|
|--------------------------------|--------------------------------|
|--------------------------------|5-------------------------------|
|------2---------------5---------|3-------------------------------|
|0-----------3---2-----------2---|--------------------------------|


(Guitars1&2)---------------------|
|--------------------------------|
|--------------------------------|
|5---------------2-------4-------|
|3---3---3---3---0-------2-------|
|--------------------------------|
     .   .   .


Chorus II:
----------
                                                              Play 3x
|(Guitar1)------------------------|--------------------------------||
||----------------------------8---|--------------------------------||
||------------7---6~~~------------|------------5---4~~~~~----------||
||------5---------------7---------|------3---------------5-----3---||
||0-------------------------------|0-------------------------------||
||--------------------------------|--------------------------------||
||                                |                                ||
|(Guitar2)------------------------|--------------------------------||
||--------------------------------|--------------------------------||
||--------------------------------|--------------------------------||
||2-------------------------------|--------------------------------||
||0---------------------------x-x-|3---------------5-----------x-x-||
||----------------------------x-x-|1---------------3-----------x-x-||
 
                
(Guitars1&2)---------------------|--------------------------------|
|--------------------------------|--------------------------------|
|------------4---5~~~~~4---------|--------------------------------|
|------2---------------------5---|3-----2-------------------------|
|0-------------------------------|------------3---2---------------|
|--------------------------------|----------------------3-----2---|


Interlude :
-----------

(Guitar1)------------------------|--------------------------------|
|--------------------------------|--------------------------------|
|--------------------------------|--------------------------------|
|-----------------------------5--|4---------------------------5---|
|2-------------------5h7---------|5-------------------5h7---------|
|0---0---0---0---5h7-------0-----|----0---0---0---5h7-------0-----|
|    .   .   .             .     |    .   .   .             .     |
(Guitar2)------------------------|--------------------------------|
|--------------------------------|--------------------------------|
|--------------------------------|--------------------------------|
|--------------------------------|--------------------------------|
|--------------------------------|--------------------------------|
|--------------------------------|--------------------------------|


|--------------------------------|--------------------------------|
|--------------------------------|--------------------------------|
|--------------------------------|--------------------------------|
|5---------------------------5---|7---------------------------5---|
|4-------------------5h7---------|5-------------------5h7---------|
|----0---0---0---5h7-------0-----|----0---0---0---5h7-------0-----|
|    .   .   .             .     |    .   .   .             .     |
|--------------------------------|--------------------------------|
|------------------------------bend ------------------------------|
|----11-12-----11-12-----12^^^^^^^^^^^^^-------11h12p11-----------|
|/14-------/14-------------------|----------------------12--------|
|--------------------------------|-------------------------12/14--|
|--------------------------------|--------------------------------|

 

Lead bit:
---------

Here's the rhythm.                
                                                           Play 4x
||--------------------------------|--------------------------------||
||--------------------------------|--------------------------------||
||--------------------------------|--------------------------------||
||--------------------------------|--------------------------------||
||5h7-7-7-5-7-8-7~~~--7-5---------|----------------------x-x-x-5---||
||------------------------7-6-5-3-|3h5-5-5-3-5-6-5~~~----5-5-5-3---||
      . .             . . . . . .      . .               . .
                                                              Play 2x
||--------------------------------|--------------------------------||
||--------------------------------|--------------------------------||
||--------------------------------|--------------------------------||
||--------------------------------|--------------------------------||
||7h9-9-9-7-9-10-9~~~-9-7---------|------------------x-x-x-7-------||
||------------------------9-8-7-5-|5h7-7-7-5-7-8-7---7-7-7-5-------||

SOLO:
||-----------------------------------------------------------------||
||-----------------------------------------------------------------||
||-----------------------------------------------------------------||
||-------------------12---12/14~~~~~~~~~~~~~~~---14h15p14\12-/14~--||
||----------12-13-14---14------------------------------------------||
||-12-13-15--------------------------------------------------------||

||-----------------------------------------------------------------||
||-----------------------------------------------------------------||
||-/14-13----------------------------------------------------------||
||--------15h18p15-14~~~~~~~~~~~~~~~--14h15p14\12-/14~~~-----------||
||-----------------------------------------------------------------||
||-----------------------------------------------------------------||

||-----------------------------------------------------------------||
||-----------------------------------------------------------------||
||-/14-13-14-14^---------------/14-13-14-14^------^14--------------||
||------------------------14---------------------------------------||
||-----------------------------------------------------------------||
||-----------------------------------------------------------------||

||-----------------------------------------------------------------||
||-----------------------------------------15~~~---14^-^14---------||
||------------------------/14-13-14-14^--------------------16------||
||-14~~~~---15p14p12/14--------------------------------------------||
||-----------------------------------------------------------------||
||-----------------------------------------------------------------||

||-----------------------------------------------------------------||
||-14^------14--------------------------------------------------17^||
||------16-----12---12------------------------14~~~--16^-^16p14----||
||----------------------14p12-14-12-14-14/16-----------------------||
||-----------------------------------------------------------------||
||-----------------------------------------------------------------||

||-14--------------------14-------17-14-------17^-----17^----------||
||----17-14-17^-17^-^17^----17-14-------17-14----------------------||
||-----------------------------------------------------------------||
||-----------------------------------------------------------------||
||-----------------------------------------------------------------||
||-----------------------------------------------------------------||

||-14-----------------------------------14-------17p14------------------||
||----17-14----14-----------------14-17----17-14-------17p14-17^-17p14--||
||----------17----16^-14----14-16---------------------------------------||
||-----------------------16---------------------------------------------||
||----------------------------------------------------------------------||
||----------------------------------------------------------------------||

||-17p14-------17p14-------17p14----------------17h19h21p91p71h19p17--||
||-------17p14-------17p14-------17/19-17h19h21-----------------------||
||--------------------------------------------------------------------||
||--------------------------------------------------------------------||
||--------------------------------------------------------------------||
||--------------------------------------------------------------------||

||----17-19h21p19p17h19p17----22^-22^-22^-^22^-^22^-22^------------||
||-21----------------------21--------------------------------------||
||-----------------------------------------------------------------||
||-----------------------------------------------------------------||
||-----------------------------------------------------------------||
||--------------------------------------------------end solo-------||


NOTE: this is the small variation that you hear during the bridge.
(Guitars1&2)---------------------|--------------------------------|
|--------------------------------|--------------------------------|
|------------4---5~~~~~4---------|------------5---------------5---|
|------2---------------------5---|------3---------------4---------|
|0-------------------------------|0---------------0---------------|
|--------------------------------|--------------------------------|

Outro :
-------
                                                              Play 3x
|(Guitar1)------------------------------|-----------------------------------||
||--------------------------------------|-----------------------------------||
||----------------4------4h5-----4h5----|----------------4------4h5----4----||
||----4h5-----4h5-5------4-------4---5--|----4h5-----4h5-5------4------4h5-5||
||----7-------7----------------------7--|----4-------4---------------------7||
||0-0-----0-0--------0-0-----0-0--------|0-0-----0-0--------0-0-----0-0-----||

  . .     . .     . .     . .      . .     . .     . .     . .
  development and support by
dmitry ivanov