rock
 
|tablatures   |lyrics   |discussion forums   |more tabs @ XGuitar.com

Megadeth tabs

99 Ways To Die guitar tab

99 WAYS TO DIE
[Megadeth - Hidden Treasures]
Transcribed by Christopher Heer
Additions by Peter Lesko
Five Magics - http://www.nebula.on.ca/heer/fivemagics/index.html


Standard Tuning

Intro
--------------------------------------------------------------------------
--------------------------------------------------------------------------
--------------------------------------------------------------------------
-9-8---9-8---9-8---9-8-----5----------------------------------------------
-9-8---9-8---9-8---9-8-----5----------------------------------------------
-7-6---7-6---7-6---7-6---3-3----------------------------------------------

Verse
------------------------------------------------------------------------------------------------------
------------------------------------------------------------------------------------------------------
---------9\---------------------------9\---6/7-----14-12----------------------------------------------
---------9\---------------5-----------9\---5/6-----14-12----------------------------------------------
---------7\---5-7-----5-7-------------7\--------------------------------------------------------------
-0-0-000----------5-7---------0-0-000-----------0-----------------------------------------------------

------------------------------------------------------------------------------------------------------
------------------------------------------------------------------------------------------------------
---------9\----------------------------9\---6/7-----14-12---------------------------------------------
---------9\----------------------------9\---5/6-----14-12---------------------------------------------
---------7\---5-7-------10-8-----------7\-------------------------------------------------------------
-0-0-000----------7-6-5--------0-0-000-----------0----------------------------------------------------

Bridge
------------------------------------------------------------------------------------------------------
-----0-----0-----0-----0------------------------------------------------------------------------------
---0-----0-----0-----0--------------------------------------------------------------------------------
-2-----4-----5-----7----------------------------------------------------------------------------------
------------------------------------------------------------------------------------------------------
------------------------------------------------------------------------------------------------------

Chorus
------------------------------------------------------------------------------------------------------
------------------------------------------------------------------------------------------------------
---------9-----------------------------9--------------------------------------------------------------
---------9---9-8-----------3-----------9---9-8----9-8-----3-------------------------------------------
---------7---9-8-----------3-----------7---9-8----9-8-----3-------------------------------------------
-0-0-000---0-7-6---------0-1---0-0-000---0-7-6----7-6-----1-------------------------------------------


Solo Rythm:

 |-----------------------------------|
 |-----------------------------------|
 |-----------------------------------| x4
 |-----4---4-----4-------7-----8-7-5-|
 |-----4---4-----4-------7-----8-7-5-|
 |-2-2-222-2-2-2-2---2-2-5-----6-5-3-|
PM . .  ..   . .     . .


 |-----------------------------------|
 |-----------------------------------|
 |-----------------------------------| x3
 |-----5---5-----5-------5-----------|
 |-----5---5-----5-------5-----2-2-3-|
 |-3-3-333-3-3-3-3---3-3-3-----0-0-1-|
PM . .  ..   . .     . .       . . .

 |-----------------------------------|
 |-----------------------------------|
 |-----------------------------------| 
 |-----7---7-----8-------8-----------|
 |-----7---7-----8-------8-----7-3---|
 |-5-5-555-5-5-5-6---6-6-6-----5-1---|
PM . .  ..   . .     . .       . 

 |-------------------------|
 |-------------------------|
 |-------------------------|
 |-----2-------2-----------|
 |-2-2-2---2-2-2-----------|
 |-0-0-0---0-0-0-----------|
PM . .     . .


 |-----------------------------|-----------------------------|
 |-----------------------------|-----------------------------|
 |-----------------------------|-----------------------------|
 |-----2-------2---------------|-----2-------2---------------|  
 |-2-2-2---2-2-2-----5---6-5-3-|-2-2-2---2-2-2-----5---6-5-3-|
 |-0-0-0---0-0-0-----3---4-3-1-|-0-0-0---0-0-0-----3---4-3-1-|
PM . .     . .

 |-----------------------------|-----------------------------|
 |-----------------------------|-----------------------------|
 |-----------------------------|-----------------------------|
 |-----------------------------|-----------------------------|
 |-2-----------------5---6-5-3-|-2-----------2----2----------|
 |-0-----------------3---4-3-1-|-0-----------0----0----------|
 
                                             There is  ....(to third verse)

Coda:

 |----------------------|-------------------------|
 |----------------------|-------------------------|
 |---------------9--4-3-|--4---3------------------|
 |---------------9--2-3-|--4---3--------2---3-----| x3
 |-------2-2-2---7--2-1-|--2---1--------2---1-----|
 |-0--0-----------------|---------------0---1-----|
PM .  .  . . .   
                              We're not ready....



 |----------------------------------------------------|
 |----------------------------------------------------|
 |---------------9---4-3---4-3---4-3---4-3------------|
 |---------------9---4-3---4-3---4-3---4-3------5-----|
 |-------2-2-2---7---2-1---2-1---2-1---2-1------5-----|
 |-0--0--------------------------------------0--3-----|
PM .  .  . . .
                    Ninety-Nine  Ninety-Nine
                
And that's it!
Now for the solos

Acoustic solos during the bridge:

Solo 1

 |---------------------------|------------------|--------------------------|
 |-------------------7--8----|-7--8-------------|--------------------------|
 |---------------------------|-------9--7--9\---|--4~~~--------------------|
 |---------------------------|------------------|--------------------------|
 |---------------------------|------------------|--------------------------|
 |---------------------------|------------------|--------------------------|

Solo 2

 |------5---7---8-----7---5---7-----|---3----------------------------------|
 |------7---8--10-----9---7---9-----|---5----------------------------------|
 |----------------------------------|--------------------------------------|
 |----------------------------------|--------------------------------------|
 |----------------------------------|--------------------------------------|
 |----------------------------------|--------------------------------------|

Solo 3

 |-------0-------------|--------12--10--8--10--7p5h7---5---3p2h3-----------|
 |---------------------|-----x---------------------------------------------|
 |---------------------|--x------------------------------------------------|
 |---------------------|---------------------------------------------------|
 |---------------------|---------------------------------------------------|
 |---------------------|---------------------------------------------------|

The Middle solo:

 |--19b21--19b21~~---19------17---|-19-17----------17------------------------|
 |-------------------22b24---20b22|-------19-17-------19-17------------------|
 |--------------------------------|-------------18----------18-16------------|
 |--------------------------------|-------------------------------19---------|
 |--------------------------------|------------------------------------------|
 |--------------------------------|------------------------------------------|

 |----------------------------|--------------------------------------------|
 |-19-17-------------/17------|-16b17--16b17--------------16b17------------|
 |-------18-16-----------14---|-16b18--16b18-16p14----14--16b18--14h16h17--|
 |-------------19-16----------|--------------------16----------------------|
 |----------------------------|--------------------------------------------|
 |----------------------------|--------------------------------------------|

 |--------------------------------|-------------------------------|
 |-14h15h16p15p14-------------12~-|-------------------------------|
 |----------------17p14----12-12~-|-------------------------------|
 |----------------------16--------|-16p14----14/16-14-------------|
 |--------------------------------|-------16----------16p14-------|
 |--------------------------------|-------------------------17----|

 |--------------------17--19b21~~~~~~-|
 |-------------16--19-----------------|
 |---------17-------------------------|
 |--16--19----------------------------|
 |------------------------------------|
 |------------------------------------|

Then it gets FAST...

 |-------------------------------------------------------------------------|
 |------------------------------------------------14h15p14-----------------|
 |------------------------------15h17-------15h17----------15--------------|
 |------------15h17-------15h17-------15h17--------------------17----------|
 |------15h17-------15h17--------------------------------------------------|
 |-15h18-------------------------------------------------------------------|

                                               This section I'm not too sure
                                               about

 |-------------15-----------20p15-18p15-17p15------15----------------------|
 |-14h15h17h18----18p17p15----------------------18----18p15----------------|
 |----------------------------------------------------------18p17p15h17----|
 |-------------------------------------------------------------------------|
 |-------------------------------------------------------------------------|
 |-------------------------------------------------------------------------|


 |-------15--------------15--------18b20~~~--18b20----18~~~----------------|
 |----------18p15-----------18p15------------------------------------------|
 |-17b19-----------17b19---------------------------------------------------|
 |-------------------------------------------------------------------------|
 |-------------------------------------------------------------------------|
 |-------------------------------------------------------------------------|

 |-18b20-18-------------------|-------17--22--17---------------------------|
 |-----------18---15----------|-20b22------------20--17--------------------|
 |--------------------17--15--|--------------------------19--17--15--------|
 |----------------------------|-------------------------------------19~~---|
 |----------------------------|--------------------------------------------|
 |----------------------------|--------------------------------------------|

 |-----------------18~~~--20~~~--|-22b24~~~~-------------------------------|
 |------15~~--18~~---------------|-----------------------------------------|
 |-15~~--------------------------|-----------------------------------------|
 |-------------------------------|-----------------------------------------|
 |-------------------------------|-----------------------------------------|
 |-------------------------------|-----------------------------------------|
  development and support by
dmitry ivanov