rock
 
|tablatures   |lyrics   |discussion forums   |more tabs @ XGuitar.com

Marilyn Manson tabs

Wrapped In Plastic guitar tab

From: suicide(is painless)snowman 
Artist:	Marilyn Manson
Album:	Portrait of an American Family
Song:	Wrapped in Plastic
guitar tabs and/or chords
URL:	http://

here is the tab that i tried to get down by ear from the demo version of wrapped in plastic.
its sort of like this. but its the ending that sounds the best. i love the second solo in that song :)

anyways, it took me a while to try adn get these down. and since i dont see any other site have these up, i thought "what the hell, might as well try and get them tabbed."

enjoy.

/=slide up to head       =slide down to pickups

^=bend  h=hit  p=pull   *=let ring  (rst)=repeat several times

opening guitar riff
1|--------------------------------------------------------
2|--------------------------------------------------------
3|--------------------------------------------------------
4|------------------------9/-6----------------------------
5|-9/-2-4-4-7-4-4-4-4-4---7/-4--2-4-4-7-4-4-4-4-4--7-10^--
6|----0-2-2-5-2-0-2-0-2---------0-2-2-5-2-0-2-0-2--5--8^--

1|----------------------------------------------------
2|----------------------------------------------------
3|----------------------------------------------------
4|-----------------------4------------------------4---
5|-2-4-4-6-4-4-4-4-4--7----2-4-4-6-4---3-2-0-2-0------
6|-0-2-2-4-2-0-2-0-2-------0-2-2-4-2------------------


for chorus:  (i play it like this, and it sounds pretty good) just play it over

1|-----0------------------------0---------------
2|-----0------------------------0---------------
3|----------------------------------------------
4|-2-2-2---4-4-4-4-7-7-7-7--2-2-2---7-7-x-6-6-6-
5|-2-2-2---4-4-4-4-7-7-7-7--2-2-2---7-7-x-6-6-6-
6|-0-0-0---2-2-2-2-5-5-5-5--0-0-0---5-5-x-4-4-4-

first solo
                                    repeat twice
1|----------------------------|------------------------
2|----------------------------|------------------------
3|----------------------------|--16-16-14--------------
4|-------7-------7---7--------|------------14-12-------
5|-7h9-9---7h9-9--------9-7-9-|------------------14-12-
6|----------------------------|------------------------

1|--------------------------------------14-----12-------
2|---------10----------10-10---------------14------10^^-
3|-9h11-11----9h11-11---------11-9-11-------------------
4|------------------------------------------------------
5|------------------------------------------------------
6|------------------------------------------------------

1|-17-17-16-14--------------------------17----12----------------
2|-------------12-12-12-12-12h14-12--12----12----15-15-14-12-10-
3|--------------------------------------------------------------
4|--------------------------------------------------------------
5|--------------------------------------------------------------
6|--------------------------------------------------------------

1|----------------------------------------
2|-10-10-9------------10-9----------------
3|---------9-11-------------9-11----------
4|--------------10-9-------------10-9-9-9-
5|----------------------------------------
6|----------------------------------------

1|-----------------------------------------
2|-10-9-----------------------10-10-10-----
3|------9-11-------9-11-11-11----------11*-
4|-----------10-9--------------------------
5|-----------------------------------------
6|-----------------------------------------


last guitar solo (thats not in the live version i downloaded OR the portrait version. yet i love this solo)

1|--------5-5-5h7-7-9-9-9-12-12--12--------14-------16-------17-------16--14----
2|-5h7-7-----------------------------14-14----14-14----14-14----14-14---14---14-
3|------------------------------------------------------------------------------
4|------------------------------------------------------------------------------
5|------------------------------------------------------------------------------
6|------------------------------------------------------------------------------

1|-12-14-12-12/9-9--9--7-7/5--5*----17-17-16-14---14--14--14--14--14h16-17-19-19-
2|----------------------------------------------17--17--17--17--17---------------
3|-------------------------------------------------------------------------------
4|-------------------------------------------------------------------------------
5|-------------------------------------------------------------------------------
6|-------------------------------------------------------------------------------
                 
                                                                       (rst)
1|-19-17-16-------16h17-19-21-21-21-19-17----14--14--16h17-19-21-24-|24^-24^-
2|----------17-17--------------------------17--17-------------------|--------
3|------------------------------------------------------------------|--------
4|------------------------------------------------------------------|--------
5|------------------------------------------------------------------|--------
6|------------------------------------------------------------------|--------

then just play the chorus all over again. and you got down the wrapped in plastic demo! 
WOO HOO!

i finished tabbing this at 10:56 pm. thank you for your time.
  development and support by
dmitry ivanov