rock
 
|tablatures   |lyrics   |discussion forums   |more tabs @ XGuitar.com

Marilyn Manson tabs

Worm Boy bass tab

Marilyn Manson
Wormboy 

Tabbed By Geoff Krempa

main rif
-----------------------------
-------5-7--------8-7--------
-5-7-------5-7---------------
-----00--------00------------ 

chorus
--------------------------
-------00----------00-----
-22-------01-22-------12--
----11----------11--------

  development and support by
dmitry ivanov