rock
 
|tablatures   |lyrics   |discussion forums   |more tabs @ XGuitar.com

Marilyn Manson tabs

White Knuckles guitar tab

Author/Artist: Marilyn Manson & The Spooky Kids
          Title: White Knuckles
          Album: Big Black Bus
          Transcribed by: M. J.
          Email: TheSpookyKidsFL@aol.com

          Ok, this is certainly not as accurate as they get,
          but I don't see anyone else trying
          to tab this song... it should help some. Have a SPOOKY day!

          -0-|-----------------------|----------|---------------------------------------
          -3-|-----------------------|----------|---------------------------------------
          -1-|-----------------------|----------|---------------------------------------
          ---|-3333-2222-3333-2-6666-|-3-33---3-|---------------------------------------
          ---|-1111-0000-1111-0-4444-|-1----2-1-|---------------------------------------
          ---|-----------------------|----------|---------------------------------------


          -9-13-12-9-13-12-9-13-12-8-11-10----|-------|---------------------------------
          ---------------------------------12-|-------|---------------------------------
          ------------------------------------|-------|---------------------------------
          ------------------------------------|-3-333-|---------------------------------
          ------------------------------------|-1-111-|---------------------------------
          ------------------------------------|-------|---------------------------------


          ------------------------------------------------------------------------------
          ------------------------------------------------------------------------------
          ------------------------------------------------------------------------------
          ---10---10---10---10---9---9---9---9---8---8---8---8---7---7---7---7----------
          -8----8----8----8----7---7---7---7---6---6---6---6---5---5---5---5------------
          ------------------------------------------------------------------------------


          ----------------------------------------|-------------------------------------
          ----------------------------------------|-------------------------------------
          ----------------------------------------|-------------------------------------
          -10-10-10-10--9-9-9-9--8-8-8-8--7-7-7-7-|-------------------------------------
          --8--8--8--8--7-7-7-7--6-6-6-6--5-5-5-5-|-------------------------------------
          ----------------------------------------|-------------------------------------


          ------------------------------------------------------------------------------
          ------------------------------------------------------------------------------
          -10-10-10-10-10-10-10-10-9-9-9-9-9-9-9-9--------------------------------------
          -----------------------------------------2------------------------------------
          -----------------------------------------0------------------------------------
          ------------------------------------------------------------------------------
  development and support by
dmitry ivanov