rock
 
|tablatures   |lyrics   |discussion forums   |more tabs @ XGuitar.com

Marilyn Manson tabs

White Knuckles bass tab

Marilyn Manson
White Knuckles 

Tabbed by Lidsville

KEY:
// = slide in my weird tab brain

PART I (chorus/intro)

G|-----------------------------|-------------------------------|
D|-----------------------------|-------------------------------|
A|-3--3-3--------3-3-3------6--|-3--3-3---------3-3-3----------|
E|--------2-2-2--------2-2-----|--------2-2-2--------2-2--1----|

PART II (verse)

G|-------------------------------------|
D|-------------------------------------|
A|--3----3----6-6///(3)-3----3----1-1--|
E|-------------------------------------| (2x)

PART III (daisy's bizzare "solo")

G|---------------------------------------------------------------------------
D|---------------------------------------------------------------------------
A|-10-10-10-10-10-10-10-10-10-10-10-10-10-10-10---9-9-9-9-9-9-9-9-9-9-9------
E|-----------------------------------------------------------------------0-0-

(cont'd)

G|-------------------------------------------------------------------------|
D|-------------------------------------------------------------------------|
A|-------------------------------------------------------------------------|
E|0-0-0-0-0-0-0-0-0-0---2-2-2-2-2-2-2-2-2-2-2-2---1---1----1----1/////////-| (to chorus)

  development and support by
dmitry ivanov