rock
 
|tablatures   |lyrics   |discussion forums   |more tabs @ XGuitar.com

Marilyn Manson tabs

Vodevil bass tab

Band: Marilyn Manson
Album: The Golden Age Of Grotesque
Song: Vodevil
Tabbed by: Matthew Cook
E-mail: Raiven14@aol.com

h = hammer-on
p = pull-off
~ = let note ring
^ = bend
x = mute

Tuning: Dropped D

Intro;
G|------
D|------
A|------
D|-5-\\-- x4

Verse;
G|-------------------------------------------------
D|-------------------------------------------------
A|-------------------------------------------------
D|-0-0-0-0--0-0-0-0--0-0-0-0-0-3-0-3-0-5-0-5-0-6\\-- x6

Pre-Chorus;
G|-------------------------------
D|-------------------------------
A|-------------------------------
D|-3333-3333-3-5--0000-0000-0-0-- x3

G|--------------------------
D|--------------------------
A|--------------------------
D|-3333-3333-3-5--11111111--

Chorus;
G|-------------------------------------------------
D|-------------------------------------------------
A|-------------------------------------------------
D|-0-0-0-0--0-0-0-0--0-0-0-0-0-3-0-3-0-5-0-5-0-6\\-- x5

G|----------------------------------------------
D|----------------------------------------------
A|----------------------------------------------
D|-0-0-0-0--0-0-0-0--0-0-0-0-0-3-0-3-0-5-0-5-0--

Verse;
G|-------------------------------------------------
D|-------------------------------------------------
A|-------------------------------------------------
D|-0-0-0-0--0-0-0-0--0-0-0-0-0-3-0-3-0-5-0-5-0-6\\-- x4

Pre-Chorus;
G|-------------------------------
D|-------------------------------
A|-------------------------------
D|-3333~3333-3-5--0000~0000-0-0-- x3

G|--------------------------
D|--------------------------
A|--------------------------
D|-3333~3333-3-5--11111111--

Chorus;
G|-------------------------------------------------
D|-------------------------------------------------
A|-------------------------------------------------
D|-0-0-0-0--0-0-0-0--0-0-0-0-0-3-0-3-0-5-0-5-0-6\\-- x4

Verse;
G|-------------------------------------------------
D|-------------------------------------------------
A|-------------------------------------------------
D|-0-0-0-0--0-0-0-0--0-0-0-0-0-3-0-3-0-5-0-5-0-6\\-- x8

Pre-Chorus;
G|-------------------------------
D|-------------------------------
A|-------------------------------
D|-3333~3333-3-5--0000~0000-0-0-- x3

G|--------------------------
D|--------------------------
A|--------------------------
D|-3333~3333-3-5--11111111--

Outro;
G|-------------------------------------------------
D|-------------------------------------------------
A|-------------------------------------------------
D|-0-0-0-0--0-0-0-0--0-0-0-0-0-3-0-3-0-5-0-5-0-6\\-- x8

End on;

G|-----
D|-----
A|-----
D|-3~--
  development and support by
dmitry ivanov