rock
 
|tablatures   |lyrics   |discussion forums   |more tabs @ XGuitar.com

Marilyn Manson tabs

Valentine's Day bass tab

Valentine's Day - Marilyn Manson
Jon Craven (nojnevarc@hotmail.com)
(enters @ 0:07)

Riff 1: (x3)(might be synth)
G:-----------------|-----------------|-----------------|-----------------|-----------------|
D:-----------------|-----------------|-----------------|-----------------|-----------------|
A:-----------------|-----------------|-----------------|---------6-6-6-6-|-4-4-4-4-4-4-4-4-|
E:-1-1-1-1-1-1-1-1-|-1-1-1-1-1-1-1-1-|-1-1-1-1-1-1-1-1-|-1-1-1-1---------|-----------------|

G:-----------------|-----------------|-----------------|
D:-----------------|-----------------|-----------------|
A:-4-4-4-4-4-4-4-4-|-4-4-4-4-4-4-4-4-|-4-4-4-4-6-6-6-6-|
E:-----------------|-----------------|-----------------|

Riff 2: (might be synth)
G:-----------------|-----------------|-----------------|-----------------|
D:-----------------|-----------------|-----------------|-----------------|
A:-3-3-3-3-3-3-3-3-|-3-3-3-3-3-3-3-3-|-3-3-3-3-3-3-3-3-|-----------------|
E:-----------------|-----------------|-----------------|-4-4-4-4-4-4-4-4-|

Riff 3: (x2)
G:-----------|-------------|-----------|------------|
D:-----------|-------------|-----------|------------|
A:-----------|-------------|-----------|------------|
E:-1***-4***-|-3--1--/**12-|-***\-1--4-|-3--1--x--x-|

Riff 4:
G:------------|------------|-----------------|-----------------|------------|------------|
D:------------|------------|-----------------|-----------------|------------|------------|
A:-1--R--R--R-|-4--R--R--R-|-----------------|-----------------|-1--R--R--R-|-4--R--R--R-|
E:------------|------------|-1-1-1-1-1-1-1-1-|-1-1-1-1-1-1-1-1-|------------|------------|

Riff 1
Pause for 16 measures
Riff 2
Riff 3 (x2)

Fill:
G:------------|------------|-----------------|-----------------|------------|--------------|
D:------------|------------|-----------------|-----------------|------------|--------------|
A:-1--R--R--R-|-4--R--R--R-|-----------------|-----------------|-1--R--R--R-|-4--R--R------|
E:------------|------------|-1-1-1-1-1-1-1-1-|-1-1-1-1-1-1-1-1-|------------|----------12\-|

Riff 3 (x8)
  development and support by
dmitry ivanov