rock
 
|tablatures   |lyrics   |discussion forums   |more tabs @ XGuitar.com

Marilyn Manson tabs

User Friendly guitar tab

User Friendly
tabbed by jonden@ix.netcom.com verse 

E-12--------12----12-----12--15---------- 
B---12-15-12--12----12-15--12--12-------- 
G---------------------------------------- 
D---------------------------------------- 
A---------------------------------------- 
E---------------------------------------- 

chorus 
------------------------------------------ 
------------------------------------------ 
------------------------------------------ 
-9-----10--12-14-------------------------- 
-9-----10--12-14-------------------------- 
-7------9--10-12-------------------------- 

after chorus(bridge?) 
---------------------------------------- 
---------------------------------------- 
-9-9-9-9-7-11-11-11-11-7---------------- 
-9-9-9-9-7-11-11-11-11-7---------------- 
-7-7-7-7-5-9 -9 -9 -9 -5---------------- 
----------------------------------------

  development and support by
dmitry ivanov