rock
 
|tablatures   |lyrics   |discussion forums   |more tabs @ XGuitar.com

Marilyn Manson tabs

User Friendly bass tab

~~UsER FRiEnDLY~~   MAR1LYN MAN5ON  mechanical animals
tabbed by jonden@ix.netcom.com   BASS TAB

verse
G------------------------------------
D------------------------------------
A---7-5-7-9-9-5-7---7-5--------------
E-0---------------0-----3-5-3-5-5-0--

chorus
----------------
----------------
----------------
-7----9--10-12--

after chorus
---------------------
---------------------
-7-7-7-7-5-9-9-9-9-5-
---------------------
  development and support by
dmitry ivanov