rock
 
|tablatures   |lyrics   |discussion forums   |more tabs @ XGuitar.com

Marilyn Manson tabs

Use Your Fist and Not Your Mouth bass tab

Band: Marilyn Manson
Album: The Golden Age of Grotesque
Song: Use Your Fist and Not Your Mouth
Tabbed by: Donnie Dorko
E-mail: donniedorko@exgirlscout.net


Tuning: Drop D


Main Riff/Chorus

G|---------------------
D|---------------------
A|---------------------
D|-2-2-2-2-3--2-2-2-2-0

Verse/Post Chorus

G|------------------------
D|------------------------
A|------------------------
D|-2--3-3-2--0-0-2--3-2--2

Bridge (I woke up today)

G|-------------------------
D|-------------------------
A|-------33-33-00-00-00-00-
D|-22-22-------------------




This is my first tab, so if it sucks, sorry.
  development and support by
dmitry ivanov