rock
 
|tablatures   |lyrics   |discussion forums   |more tabs @ XGuitar.com

Marilyn Manson tabs

Tourniquet guitar tab

Tourniquet 



Tabbed by: Prosthetic Synthesis



Riff 1: Intro/Main Riff



|-----------------------------|

|-----------------------5b-r--|

|-----------------------5b-r--|

|--7b----7---7-r7-5-3-5-------|

|-----------------------------|

|-----------------------------|



Riff 2: Chorus



|--------------------------------------------------------------------------------------------|

|--------------------------------------------------------------------------------------------|

|-------------------------------------------------------------------15-15-15-15-15-15-15-15--|

|--5-5-5-5-5-5-5-5-/12-12-12-12-12-12-12-12-13-13-13-13-13-13-13-13--------------------------|

|--5-5-5-5-5-5-5-5--------------------------------------------------13-13-13-13-13-13-13-13--|

|--3-3-3-3-3-3-3-3---------------------------------------------------------------------------|



Riff 3:



|---------------------------------------|

|-------20------------------------------|

|--19b-----15--14--10--12~--7----12~~~--|

|---------------------------------------|

|---------------------------------------|

|---------------------------------------|



Riff 4:



|-----------|

|-----------|

|-----------|

|-----------|

|-----------|

|--3b~~~r---|





-----

Tourniquet 



Tabbed by Never Born

slborn@zoomnet.net



this part is first  played 4 times

e|---------------------------------

b|---------------------------------

g|---------------------------------

d|---------------------------------

a|--^------------^---^-------------

e|-17--17-15-13-15---9-------------



this part is played slowly when he is singing "Shes 

made of hair and bone and little teath...." quietly

e|-----------------------------------------

b|-----------------------------------------

g|-----------------------------------------

d|-----------------------------------------

a|-----------------------------------------

e|-15--18---15--18---15---18-21-22--18-----



this is when hes screeming "take your hatred out on me"..

e|---------------------------------

b|---------------------------------

g|---------------------------------

d|-------^---^---^-----------------

a|--^---15--16---17/18/17---15--^--

e|-17--------------------------15--



This is a little solo after the first corus

bend the heck out of those first 3 notes

e|---------------------------------------

b|-----^--^------------------^-----------

g|--^-19-21---^-----------^-14-----^-----

d|-21--------19--17---15-17----15-17~----

a|---------------------------------------

e|---------------------------------------



this is when hes singing "what i wanted, what i needed.."

e|-----------------------------

b|-----------------------------

g|-----------------------------

d|-*-*-*-*-5-*-*-*-*-5-5-------

a|-5-5-5-5-5-5-5-5-5-5-5-------

e|-3-3-3-3-3-3-3-3-3-3-3-------



* = harmonics or palm mutes



Ending



e|------

b|------

g|------

d|------

a|--^---

e|-17~~~





fly part played by key board



e|----------

b|----------

g|----------

d|----------

a|----------

e|-2-2/4/2--



part in original version and prosthetic remix



e|--------------------------------------------

b|--------------------------------------------

g|--------------------------------------------

d|-*-*-*-*-5-*-3-*-*-----*-*-*-*-5-*-3-*-*----

a|-5-5-5-5-5-5-3-5-5-----5-5-5-5-5-5-3-5-5-4~-

e|-3-3-3-3-3-3-1-3-3-5~--3-3-3-3-3-3-1-3-3----



* = palm mutes





  development and support by
dmitry ivanov