rock
 
|tablatures   |lyrics   |discussion forums   |more tabs @ XGuitar.com

Marilyn Manson tabs

This Is the New Shit guitar tab

Marilyn Manson - This Is The New Shit
Submitted By: Anavrin
EMail: joe_the_man3@hotmail.com
Album: The Golden Age of Grotesque (2003)
As tabbed by Joe Muggah

Dropped D tuning

Verse
e-----------------------------------------------------------
B-----------------------------------------------------------
G-----------------------------------------------------------
D-----------------------------------------------------------
A--5-5---5-5---5-5----------5-5---5-5---5-5-----------------
D--0-0---0-0---0-0----------0-0---0-0---0-0-----------------


Riff
e-----------------------------------------------------------
B--10-10-10-10-11-----10--11--8--11-------------------------
G-----------------------------------------------------------
D-----------------------------------------------------------
A-----------------------------------------------------------
D-----------------------------------------------------------


Chorus
e-----------------------------------------------------------
B-----------------------------------------------------------
G-----------------------------------------------------------
D-----------------------------------------------------------
A-----------------------------------------------------------
D--12-0-0--12-0-0--12-0-0--12-0-0--12-0-0-0--15-0-0--15-0-0-

(continued)
e-----------------------------------------------------------
B-----------------------------------------------------------
G-----------------------------------------------------------
D-----------------------------------------------------------
A-----------------------------------------------------------
D--15-0-0--15-0-0--15-0-0-0--10-0-0--10-0-0--10-0-0--10-0-0-

(continued)
e-----------------------------------------------------------
B-----------------------------------------------------------
G-----------------------------------------------------------
D-----------------------------------------------------------
A-----------------------------------------------------------
D--10-0-0-0--12-0-0--12-0-0--12-0-0--12-0-0--10-12-10-------


Bridge
e-------------|---------------------------------------------
B-------------|---------------------------------------------
G-------------|---------------------------------------------
D-------------|---------------------------------------------
A-------------|---------------------------------------------
D--10/11-\10--|--12-/-13-------12-/-13--\-10----------------


Verse
Riff
Chorus
Riff
Verse, Riff
Chorus
Bridge
Verse, Riff
Chorus
Verse
Riff
  development and support by
dmitry ivanov