rock
 
|tablatures   |lyrics   |discussion forums   |more tabs @ XGuitar.com

Marilyn Manson tabs

This Is the New Shit bass tab

Marilyn Manson - This Is The New Shit
Submitted By: Anavrin
EMail: joe_the_man3@hotmail.com
Album: The Golden Age of Grotesque (2003)
As tabbed by Joe Muggah

Dropped D tuning


Verse
G------------------------------------------------------------
D------------------------------------------------------------
A------------------------------------------------------------
D--0-0----0-0----0-0---------0-0----0-0----0-0---------------


Chorus
G------------------------------------------------------------
D------------------------------------------------------------
A------------------------------------------------------------
D--12-0-0--12-0-0--12-0-0--12-0-0--12-0-0-0--15-0-0--15-0-0--

(continued)
G------------------------------------------------------------
D------------------------------------------------------------
A------------------------------------------------------------
D--15-0-0--15-0-0--15-0-0-0--10-0-0--10-0-0--10-0-0--10-0-0--

(continued)
G------------------------------------------------------------
D------------------------------------------------------------
A------------------------------------------------------------
D--10-0-0-0--12-0-0--12-0-0--12-0-0--12-0-0--10-12-10--------


Bridge
G------------------------------------------------------------
D------------------------------------------------------------
A------------------------------------------------------------
D--6-6-6-6-6-6-6-\------6-6-6-6-6-6-6-\------3-3-3-3-3-3-3-\-

(continued)
G------------------------------------------------------------
D------------------------------------------------------------
A------------------------------------------------------------
D--3-3-3-3-3-3-3-\------6-6-6-6-6-6-6-\------6-6-6-6-6-6-6-\-

(continued)
G------------------------------------------------------------
D------------------------------------------------------------
A------------------------------------------------------------
D--3-3-3-3-3-3-3-\------1-1-1-1-1-1-1-1----------------------


Verse
Chorus
Verse
Chorus
Bridge
Verse
Chorus
Verse
  development and support by
dmitry ivanov