rock
 
|tablatures   |lyrics   |discussion forums   |more tabs @ XGuitar.com

Marilyn Manson tabs

The Nobodies bass tab

From: Bruce Armstrong 
Artist:	Marilyn Manson
Album:	Holy Wood (In The Shadow Of The Valley Of The Death)
Song:	The Nobodies

Bass tab

Verse:
G|----------------------------------------|
D|----------------------------------------|
A|----------------------------------------|
E|-5-5--5-5--8-8--8-8--0-0--0-0--5-5--3-3-|

Chorus:
G|---------------------------------------------------------------------|
D|---------------------------------------------------------------------|
A|---------------------------------------------------------------------|
E|-5-5-5-5-5-5-5-5--8-8-8-8-8-8-8-8--0-0-0-0-0-0-0-0--5-5-5-5--3-3-3-3-|

Bridge:
G|----------------------------------|
D|----------------------------------|
A|----------------------------------|
E|-5-5-5-5-5-5-5-5--1-1-1-1-1-1-1-1-|

Fill:
G|---------------|
D|-0-----2-0-----|
A|-----------2-0-|
E|---------------|

End:
G|--------------------|
D|--------------------|
A|--------------------|
E|-5-5--5-5--5-5--5-5-|

"Some children died the other day, we fed machines and then we prayed"

  development and support by
dmitry ivanov