rock
 
|tablatures   |lyrics   |discussion forums   |more tabs @ XGuitar.com

Marilyn Manson tabs

The Love Song guitar tab

      MARILYN MANSON ONLINE
     http://manson.rmp3.net/
        
        HOLY WOOD TABS


Tabbed by : julian015@hotmail.com
Artist    : Marilyn Manson
Album     : Holy Wood (In The Shadow Of The Valley Of Death)
Song      : Track #2 - The Love Song

Tuning: Drop D tuning (DADGBE)

Main riff : ("Do you love your guns...")

G|-------------------------------|
D|-6-0---0-3-5---0-6-0---0-3-5-3-|
A|-6-0---0-3-5---0-6-0---0-3-5-3-|
D|-6-0---0-3-5---0-6-0---0-3-5-3-|

2nd guitar bit : ("Got love songs in my head...")

G|---|
D|-0-| < let this chord ring for 1 bar
A|-0-|        
D|-0-|

G|---------------|
D|-0---2---3---7-|
A|-0---2---3---7-| < this for the second part of "Got love songs..."
D|-0---2---3---7-|

Clean guitar part : ("She tells me I'm a pretty bullet...")

E|---------------------------------|
B|-3-3-3-3-5-5-5-5-6-6-6-6---------|
G|-------------------------2-2-2-2-|


  development and support by
dmitry ivanov