rock
 
|tablatures   |lyrics   |discussion forums   |more tabs @ XGuitar.com

Marilyn Manson tabs

The Last Day On Earth guitar tab

Artist: Marilyn Manson
Album: Mechanical Animals
Song: The Last Day On Earth

Intro and chorus 
E -------------------------------------- 
B -----------14-------14---------------- 
G -----11-------11-------11------------- 
D --14----14-------14------------------- 

The chords are 
D --9-9-9-9-5-5-5-5-2-2-2-2-2-2-2-2----------------- 
A --9-9-9-9-5-5-5-5-2-2-2-2-2-2-2-2---play this 3x-- 
E --7-7-7-7-3-3-3-3-0-0-0-0-0-0-0-0----------------- 

D --12-12-12-12-10-10-10-10-9-9-9-9-9-9-9-9-------------------------- 
A --12-12-12-12-10-10-10-10-9-9-9-9-9-9-9-9---and this 1x------------ 
E --10-10-10-10-8--8--8--8--7-7-7-7-7-7-7-7-------------------------- 

  development and support by
dmitry ivanov