rock
 
|tablatures   |lyrics   |discussion forums   |more tabs @ XGuitar.com

Marilyn Manson tabs

The Great Big White World bass tab

Great Big White World
By Marilyn Manson
Tabbed by Garrett Moewe 

Tuning  - DADG (Drop D Tuning)

This is where Manson starts to sing

Riff 1

G----------------           
D----------------        (play riff 4 times)
A----------------            
D-6--0--7--0--6--0(hold)     

~bass cuts out for a little bit~

"i'm not attached..." 

Riff 2

G------------------------------------------------
D------------------------------------------------
A------------------------------------------------
D10--10--10--10--10--10--10--10--10--9--9--9--9--

G------------------------------------------------
D------------------------------------------------
A------------------------------------------------
D9--9--9--9--9--8--8--8--8--8--8--8--8--8--7--7--

G-------------------
D-------------------    (Play this riff twice)
A-------------------
D7--7--7--7--7--7--7

"Cuse It's A Great..."

Riff 3

G-----------------------------------------------
D-----------------------------------------------
A-----------------------------------------------
D8--8--8--8--6--6--6--6--8--10--10--10--10--10--

G--------------
D--------------      (Play this riff 4 times)
A--------------
D10--10--10--10

"My Perscription's In...."

Riff 4

G------------------------------------------------
D------------------------------------------------
A------------------------------------------------
D3--3--3--3--3--3--3--3--3--6--6--6--6--6--6--6--

G-------------------------------------------------
D-------------------------------------------------
A-------------------------------------------------
D6--6--10--10--10--10--10--10--10--10--10--10--8--

G---------------------------------------------------
D---------------------------------------------------
A---------------------------------------------------
D8--8--8--8--8--8--8--8--8--6--6--6--6--6--6--6--6--

G-------------------------------
D------------------------------- (Play this riff once)
A-------------------------------
D6--6--5--5--5--5--5--5--5--5--5

Then Play Riff 1 (6 Times)
Then Play Riff 3 (4 Times)

Riff 5

G------------------------------------------------
D------------------------------------------------
A------------------------------------------------
D3--3--3--3--3--3--3--3--3--6--6--6--6--6--6--6--

G-------------------------------------------------
D-------------------------------------------------
A-------------------------------------------------
D6--6--10--10--10--10--10--10--10--10--10--10--8--

G------------------------
D------------------------ (Then Play this once)
A------------------------
D8--8--8--8--8--8--8--8-- 

Then Play Riff 4 (one time)
Then Play Riff 2 (one time)

~Then Bass Cuts Out For A Second~

During the solo play
riff 5
riff 4

Then play

riff 5
riff 4

This is my First tab but im sure its right.  If you have
any questions comments or such stuff email me at
TheSadMachine@AOL.com

"I could see that they only looked and acted like
  humans, but they had lost their souls, they were
  Mechanical Animals." ~Omega~
  development and support by
dmitry ivanov