rock
 
|tablatures   |lyrics   |discussion forums   |more tabs @ XGuitar.com

Marilyn Manson tabs

The Golden Age of Grotesque guitar tab

Marilyn Manson
The Golden Age of Grotesque
tabbed by ES

Verse
e|--------------0-------------------------0------------|
B|--------1-------1------------------0------0----------|
G|----------0--------------------------0---------------|
D|----2------------------------------------------------|
A|--3------------------3-5-6----7--------------7-6-5---|
E|---------------------------0-------------------------|

Pre-Chorus - Do Verse

(cont.)
B|--------1-------------0----------0---|
G|----------0--------------------------|
D|----2--------------2------2---2------|
A|--3---3-----3---2---------2----------|
E|--------------------------0----------|

Chorus
e|----------------------------------------0-------------|
B|-----------------------------------1------------------|
G|--------------0---------------------------------------|
D|--2-----2------------5-4-2--------------------5-4-2---|
A|--2--------------------------3---3----3----3----------|
E|--0---0-----0-----0-----------------------------------|

(cont.)
e|--------------------------------------0-------------|
B|---------------------------------1------------------|
G|-------------0--------------------------------------|
D|--------2----------5-4-2--------------------5-4-2---|
A|--2---2----2----2----------3---3----3----3----------|

(cont.)
e|----------------------------------------0------------|
B|-----------------------------------1-----------------|
G|--------------0--------------------------------------|
D|--2-----2------------5-4-2--------------------5-4-2--|
A|--2--------------------------3---3----3----3---------|
E|--0---0-----0-----0----------------------------------|

(cont.)
B|------------0-------------------1-------------------------|
G|---------0------------------------2-----------0-----------|
D|----2-------------5-4-2------2------2-------0---0-----2---|
A|--2----2-------2----------0---------------2-------2---2---|
E|----------------------------------------3-------------0---|

Bridge
D|--5---4---7-----------4------5---4---7---------|
A|-----------------7-------------------------7---|
  development and support by
dmitry ivanov