rock
 
|tablatures   |lyrics   |discussion forums   |more tabs @ XGuitar.com

Marilyn Manson tabs

The Fight Song guitar tab

      MARILYN MANSON ONLINE
     http://manson.rmp3.net/
        
        HOLY WOOD TABS


Tabbed by : julian015@hotmail.com
Artist    : Marilyn Manson
Album     : Holy Wood (In The Shadow Of The Valley Of Death)
Song      : Track #3 - The Fight Song

Tuning: Drop D (DADGBE)

Key :

^ = slight/gradual bend
bx = bend to note (x)

Intro (Cleanish guitar)

E|----12--------------|--------------------|
B|--------------------|--------------------|
G|--------------9-9---|--------------9-9---|
D|-11----9-9-11-----9-|-11-11-9-9-11-----9-|
A|--------------------|--------------------|

Distorted guitar part #1 

D|-4-4-2-2-4-7-7-7^-|---------|-4-4-2-2-4-2-2-2-|--------|
A|-4-4-2-2-4-7-7-7^-|<3 times>|-4-4-2-2-4-2-2-2-|<1 time>|
D|-4-4-2-2-4-7-7-7^-|---------|-4-4-2-2-4-2-2-2-|--------|

Verse (Cleanish guitar)

E|----12--------------|--------------------|
B|--------------------|--------------------|
G|--------------9-9---|--------------9-9---|
D|-11----9-9-11-----9-|-11-11-9-9-11-----9-|
A|--------------------|--------------------|

E|---------------------|--------------------|
B|---------------------|--------------------|
G|--------------9-9----|--------------------|
D|-11-11-9-9-11-----11-|-11-11-9---11-9-9-9-|
A|---------------------|--------------------|

Distorted guitar part #2 ("...and when we were good..")

*Note: Play each chord 8 times*

G|-4-2-4-2-|-7-4-2---|
D|-4-2-4-2-|-7-4-2-2-|
A|-2-0-2-0-|-5-2-0-2-|
D|---------|-------2-|

Distorted guitar part #3 ("The death of one..")

G|-5-5-5-5-5-5-5-7-----------------|
D|-5-5-5-5-5-5-5-7-7-7-7-7-7-7-7-7-| 3 times
A|-3-3-3-3-3-3-3-5-7-7-7-7-7-7-7-7-|
D|-----------------7-7-7-7-7-7-7-7-|

G|-5-5-5-5-5-5-5-5-----------------|
D|-5-5-5-5-5-5-5-5-7-7-7-7-9-9-9-9-| 1 time 
A|-3-3-3-3-3-3-3-3-7-7-7-7-9-9-9-9-| ("The death of millions..")
D|-----------------7-7-7-7-9-9-9-9-|

This can be heard during the last chorus and during the final "FIGHT! FIGHT!...etc"

E|---------------9-----|
B|-7(with wah)---12b14-|
G|---------------------|


  development and support by
dmitry ivanov