rock
 
|tablatures   |lyrics   |discussion forums   |more tabs @ XGuitar.com

Marilyn Manson tabs

The Fight Song bass tab

From: Bruce Armstrong 
Artist:	Marilyn Manson
Album:	Holy Wood (In The Shadow Of The Valley Of Death)
Song:	The Fight Song

bass tab

Main Riff:

G|--------------------------------------------------------------------|
D|--------------------------------------------------------------------|
A|--------------------------------------------------------------------|
E|-2-2-0-0-2-5-5-5--2-2-0-0-2-5-5-5--2-2-0-0-2-5-5-5--2-2-0-0-2-0-0-0-|

Chorus:
G|-----------------------------------------------------------------|
D|-----------------------------------------------------------------|
A|-----------------------------------------------------------------|
E|-0-0-0-0-0-0-0-0-5-5-5-5-5-5-5-5-7-7-7-7-7-7-7-7-5-5-5-5-5-5-5-5-|
Continued...
G|-------------------------------------------------------------------------|
D|-------------------------------------------------------------------------|
A|-------------------------------------------------------------------------|
E|-10-10-10-10-10-10-10-10-7-7-7-7-7-7-7-7-5-5-5-5-5-5-5-5-0-0-0-0-0-0-0-0-|

Bridge:
G|---------------------------------|
D|---------------------------------|
A|---------------------------------|
E|-8-8-8-8-8-8-8-8-5-5-5-5-5-5-5-5-|

"You'll never grow up to be a big rock star, celebrated victim of your fan."
  development and support by
dmitry ivanov