rock
 
|tablatures   |lyrics   |discussion forums   |more tabs @ XGuitar.com

Marilyn Manson tabs

The Dope Show guitar tab

The Dope Show - MAR1LYN MAN5ON mechanical animals 
tabbed by rob hudson and jonden@ix.netcom.com 

part 1
E------------------------------------------------------------------------------------- 
B------------------------------------------------------------------------------------- 
G--9-9-9-9-9-9-9-9/12-12-12-12-12-12-12-12/7-7-7-7-7-7-7/5-5-5-5-5-5-5-5/4 
D--9-9-9-9-9-9-9-9/12-12-12-12-12-12-12-12/7-7-7-7-7-7-7/5-5-5-5-5-5-5-5/4 
A--7-7-7-7-7-7-7-7/10-10-10-10-10-10-10-10/5-5-5-5-5-5-5/3-3-3-3-3-3-3-3/2 
E-0----------------------------------------------------------------------------------- 

part 2 (sounds like w/wah) 
---------------------------------------- 
---------------------------------------- 
---------------------------------------- 
---------------------------------------- 
-7-7-7-7-5-7---7---7-7-7-7-5-7---7- 
---------------3-------------------3--- 

part 3 
-------------------------------------- 
-------------------------------------- 
-9-9-9-9-7-7-7-7-5-5-5-5---------- 
-9-9-9-9-7-7-7-7-5-5-5-5-5-5-5-5- 
-7-7-7-7-5-5-5-5-3-3-3-3-5-5-5-5- 
-----------------------------3-3-3-3- 

Part 4 
----------------------------- 
------------------------------
---------------7-7-5-5-5-4- 
-2-2-2-2-5-2-7-7-5-5-5-4- 
-2-2-2-2-5-2-5-5-3-3-3-2- 
-0-0-0-0-3-0--------------- 

play in this order 
1 1 2 2 2 3 1 1 2 2 2 2&3 1 1 

  development and support by
dmitry ivanov