rock
 
|tablatures   |lyrics   |discussion forums   |more tabs @ XGuitar.com

Marilyn Manson tabs

The Dope Show bass tab

This is what I belive is the correct version of Marilyn Manson's new
song, Dope Show.  I'd appriciate it if you'd post it.  Thanks.



                                                    Nick.
Bass tab for Dope Show
Music by Twiggy
Lyrics by Manson
Tab by Nick DiMaria

Well, I just got the single a ouple of days ago, and this is my first time doing this, but it sounds pretty right to me.

Normal tuning (might be tuned down a half step or maybe even one whole step)

Listen to the song for timing

Verse
|--------------|----------------|-----------------------|
|*-------------|----------------|----------------------*|
|*-------------|----------------|---5--5--3--3--3--2---*|
|---0--0--0--0-|---0--3--5--0---|-----------------------|


Chorus
|------------------------------------|---------------------------------------|
|*-----------------------------------|--------------------------------------*|
|*-----------------------------------|--------------------------------------*|
|---00--00--00--00--55--55--55--55---|---33--33--33--33--22--22--22--22--1---|
                                                         Played as 2 2 not 22


Bridge (They love you when you're under the covers....)
|----------------------------------|
|*--------------------------------*|
|*--------------------------------*|
|---0--0--3--3--5--5--2--2--1--1---|

That's it. It's quite easy. 
  development and support by
dmitry ivanov