rock
 
|tablatures   |lyrics   |discussion forums   |more tabs @ XGuitar.com

Marilyn Manson tabs

The Death Song bass tab

The Death Song - Marilyn Manson
Jon Craven (nojnevarc@hotmail.com)
(enters @ 0:35)

Riff 1:
G:------------|------------|------------|------------|------------|------------|------------|
D:------------|------------|------------|------------|------------|------------|------------|
A:-7--7--7--7-|-7--7--7--7-|-5--5--5--5-|-5--5--5--5-|-7--7--7--7-|-7--7--7--7-|-5--5--5--5-|
E:------------|------------|------------|------------|------------|------------|------------|

G:------------|------------|------------|------------|------------|------------|------------|
D:------------|------------|------------|------------|------------|------------|------------|
A:-5--5--5--5-|-3--3--3--3-|-3--3--3--3-|-5--5--5--5-|-5--5--5--5-|-3--3--3--3-|-3--3--3--3-|
E:------------|------------|------------|------------|------------|------------|------------|

G:------------|------------|
D:------------|------------|
A:-5--5--5--5-|-5--5--5--5-|
E:------------|------------|

Fill:
G:----------|------------|------------|
D:----------|------------|------------|
A:-7*******-|-R--R--R--R-|-R--R--R--R-|
E:----------|------------|------------|

Pause for 24 measures
Riff 1

Riff 2: (x2)                                         (?)---------------------------------------->
G:------------|------------|------------|------------|--------------|--------------|------------|
D:-5--5--5--5-|-5--5--5--5-|-4--4--4--4-|-4--4--4--4-|--------------|--------------|------------|
A:------------|------------|------------|------------|-5h7--7--7--5-|-5--5--5h7--7-|-7--5--5--5-|
E:------------|------------|------------|------------|--------------|--------------|------------|

Pause for 24 measures
Riff 1

Riff 3:
G:------------|------------|------------|------------|
D:-5--5--5--5-|-5--5--5--5-|-4--4--4--4-|-4--4--4--4-|
A:------------|------------|------------|------------|
E:------------|------------|------------|------------|

Riff 1 (x2)
Fill
  development and support by
dmitry ivanov