rock
 
|tablatures   |lyrics   |discussion forums   |more tabs @ XGuitar.com

Marilyn Manson tabs

The Bright Young Things guitar tab

Marilyn Manson - The Bright Young Things
Submitted By: Anavrin
EMail: joe_the_man3@hotmail.com
Album: The Golden Age of Grotesque (2003)
As tabbed by Joe Muggah

Dropped D tuning


Intro
e-----------------------------------------------------------
B-----------------------------------------------------------
G-----------------------------------------------------------
D--0-3--0-0--0-3--0-0--6^---0-3--0-0--0-3--0-0--------------
A--0-3--0-0--0-3--0-0--6^---0-3--0-0--0-3--0-0--<5>-<5>-<5>-
D--0-3--0-0--0-3--0-0--6^---0-3--0-0--0-3--0-0--------------


Verse
e-----------------------------------------------------------
B-----------------------------------------------------------
G-----------------------------------------------------------
D--3-0-0--3-0-0--3-0-0--3-0-0--3-0-0---3-0-0--3-0-0--3-0-0--
A-----------------------------------------------------------
D-----------------------------------------------------------

(continued)
e-----------------------------------------------------------
B-----------------------------------------------------------
G-----------------------------------------------------------
D--3-0-0--3-0-0--6-0-0--------------------------------------
A-----------------------------------------------------------
D-----------------------------------------------------------


Pre-Chorus
e-----------------------------------------------------------
B-----------------------------------------------------------
G-----------------------------------------------------------
D--0-3--3-0-----0-3--3-0--------------------0-3--3-0----6---
A--0-3--3-0-----0-3--3-0--<5>-<5>-<5>-<5>---0-3--3-0----6---
D--0-3--3-0-----0-3--3-0--------------------0-3--3-0----6---

(continued)
e-----------------------------------------------------------
B-----------------------------------------------------------
G-----------------------------------------------------------
D--0-3--3-0---0-3--3-0--------------------------------------
A--0-3--3-0---0-3--3-0--<5>-<5>-<5>-<5>---------------------
D--0-3--3-0---0-3--3-0--------------------------------------


Chorus
e-----------------------------------------------------------
B-----------------------------------------------------------
G-----------------------------------------------------------
D--0-0-0-0--3-3-3---10---10-10---0-3--0-6-------------------
A--0-0-0-0--3-3-3---10---10-10---0-3--0-6-------------------
D--0-0-0-0--3-3-3---10---10-10---0-3--0-6-------------------

(end on:)
e-----------------------------------------------------------
B-----------------------------------------------------------
G-----------------------------------------------------------
D--0-0-0-0--3-3-3---10---10-10---0-3--0-6------0-3--0-6-----
A--0-0-0-0--3-3-3---10---10-10---0-3--0-6------0-3--0-6-----
D--0-0-0-0--3-3-3---10---10-10---0-3--0-6------0-3--0-6-----


Riff 1
e---------16^-----------16^-----------16^-----------16^-----
B-----------------------------------------------------------
G--13^-----------13^-----------13^-----------13^------------
D-----------------------------------------------------------
A-----------------------------------------------------------
D-----------------------------------------------------------


Bridge
e-----------------------------------------------------------
B-----------------------------------------------------------
G-----------------------------------------------------------
D--5-----------5-----------5------------0-3--0-6------------
A--5-----------5-----------5------------0-3--0-6------------
D--5-----------5-----------5------------0-3--0-6------------


Riff 2
e-----------------------------------------------------------
B-----------------------------------------------------------
G------------------------------13^--------------------------
D-----------------------------------------------------------
A-----------------------------------------------------------
D--12--12--12--12--12--12--12-------------12--12--12--12----

(continued)
e-----------------------------------------------------------
B-----------------------------------------------------------
G--------------13^-------------------------------------13^--
D-----------------------------------------------------------
A-----------------------------------------------------------
D--12--12--12--------------12--12--12--12--12--12--12-------

(continued)
e-----------------------------------------------------------
B-----------------------------------------------------------
G------------------------------10^--------------------------
D-----------------------------------------------------------
A-----------------------------------------------------------
D--12--12--12--12--12--12--12-------------------------------


Outro
e-----------------------------------------------------------
B-----------------------------------------------------------
G-----------------------------------------------------------
D--0-3--3-0-----0-3--3-0--------------------0-3--3-0----6---
A--0-3--3-0-----0-3--3-0--<5>-<5>-<5>-<5>---0-3--3-0----6---
D--0-3--3-0-----0-3--3-0--------------------0-3--3-0----6---

(continued)
e-----------------------------------------------------------
B-----------------------------------------------------------
G-----------------------------------------------------------
D---0-3--3-0------------------------------------------------
A---0-3--3-0------------------------------------------------
D---0-3--3-0------------------------------------------------


Intro
Verse
Pre-Chorus
Chorus
Verse
Pre-Chorus
Chorus
Pre-Chorus, Riff 1
Bridge
Chorus
Chorus, Riff 2
Pre-Chorus
Outro
  development and support by
dmitry ivanov