rock
 
|tablatures   |lyrics   |discussion forums   |more tabs @ XGuitar.com

Marilyn Manson tabs

The Bright Young Things bass tab

Tuning : Drop-D
Album : The Golden Age Of Grotesque

Intro (Main Riff)  :

G----------------------------------------------------------------------------
D----------------------------------------------------------------------------
A----------------------------------------------------------------------------
D--3-0-0-3-0-0-3-0-0-3-0-0-3-/-6-6-6-6---3-0-0-3-0-0-3-0-0-3-0-0-3-/-x-x-x-x-

Verses :

G----------------------------------------------------------------------------
D----------------------------------------------------------------------------
A----------------------------------------------------------------------------
D--0-3-0-0--------0-3-0-0--------0-3-0-0--------0-3-0-0--------0-3-0-0-------

Chorus :

G----------------------------------------------------------------------------
D----------------------------------------------------------------------------
A----------------------------------------------------------------------------
D--0-0-0-0-3-3-3-/-10-10-10-10-10-\\-0-0---0-3-/--6-6-6-----------------------

Break part (Perpetual rebellion with absolutely no cause) :

When Manson said "CAUSE!" play this note :

G----------------------------------------------------------------------------
D----------------------------------------------------------------------------
A----------------------------------------------------------------------------
D--5----------------5-----------------5--------------------------------------

I'm not sure at all about this tab but it's pretty violent !

twiggpogo@hotmail.com | http://twiggmanson.fr.st
  development and support by
dmitry ivanov