rock
 
|tablatures   |lyrics   |discussion forums   |more tabs @ XGuitar.com

Marilyn Manson tabs

Target Audience guitar tab

TARGET AUDIENCE
(narcosis narciciss)


I play this song in a standard E tuning, I think it just sounds better. As usual with my tabs listen to the 
song for the timing. Any questions just write me jellyboy@earthlink.net  

Rhy. Fig. 1
e----------------0----------1---------0-----------------------------------------------------------------
B-------3-----------3---------3---------3-----3-----------1---------0--------1---------0-----------0----
G----------2-----------2---------2---------2------------------2--------2-------2----------2-------------
D---0-------------------------------------------------------------2-------2-------2-----------2---------
A-------------------------------------------------------0-----------------------------------------------

Rhy. Fig. 2
e--------------------------------------------------------------------------------------------------------------------
B------1--------0------------1---1---------0----------1--1---------1--1-----------0----------1--1--------0-----------
G----------2--------2----------------2---------2-------------2-------------2-----------2-------------2--------2------
D---0-------------------2---------------2---------2-------------2--------------2-----------2------------2--------2---
A--------------------------------------------------------------------------------------------------------------------
Rhy. Fig. 2 cont:
e-----------------------------------------------------------------------------------------------------0--------1---
B----1--1--------0---------1--1----------0----------1--1-----------0-----------1-------3-----------3--------3------
G-----------2--------2-------------2---------2---------------2----------2--------------------2----------2--------2-
D--------------2--------2--------------2---------2---------------2---------2---------------------------------------
A------------------------------------------------------------------------------------------------------------------
Rhy. Fig. 2 cont:
e----0----------------------------------------------------
B-------3-----3-------1----------0------------0-----------
G----------2--------------2----------2--------2-----------
D-----------------------------2----------2-----2----------
A------------------0--------------------------------------

Chorus:  Half bends in the chorus where noted
                                  ?                                                                 ?   
B--------------------14-^----------------------------------------------14^------------------------------------
G--------------------16-^----------------------------------------------16^------------------------------------
D----7----7-------------------10--10------x--x--x-----9----9------------------------8-----8-----8----10-\------
A----5----5--------------------8---8------x--x--x-----7----7------------------------6-----6-----6-----8--\----
E----5----5--------------------8---8------x--x--x-----7----7------------------------6-----6-----6-----8---\---

Fill 1
B--------1----------0----------1----------0----------0----
G-----------2----------2----------2----------2------------
D----0---------2----------2----------2----------2---------
A---------------------------------------------------------

Fill 2                               ?   
e-------------------10-------------------------
B----------------------------9^----------------
G----7-----------------------------------------
D----------10----------------------------------

Rhy. Fig 3         ? 
A--------2-------2^2-------0---------------------
E----0-------0----------1-------1----0-----------

Fill 3: I know this looks a little strange but I think you get the idea those are 10's 
G---77777777/1010101010101010/99999999\88888888------
D----------------------------------------------------
A---55555555/8-8-8-8-8-8-8-8/77777777\66666666-------

Fill 4
e----13---12-------11---------------
B--------------11-------------------

Ok that's the last of the Tab. Hope you enjoy playing it

Rhy. Fig. 1 x 4
Rhy. Fig. 2 x 1
Chorus   x 3
Fill 1 x 1
Rhy. Fig. 1 x 4
Rhy. Fig. 2 x 1
Chorus x6 with Fill 2 four times in backround starts the 5th time you play the chorus
Rhy. Fig. 3 x 6
Fill 3 x 1
Chors x8 with fill 4 nine times then fill 2 till the end.
  development and support by
dmitry ivanov