rock
 
|tablatures   |lyrics   |discussion forums   |more tabs @ XGuitar.com

Marilyn Manson tabs

Target Audience bass tab

Target Audience (Narcissus Narcosis) - Marilyn Manson
Jon Craven (nojnevarc@hotmail.com)
(enters @ 0:34)

Riff 1: (x2)
G:-----------------|-----------------|-----------------|-----------------|
D:-----------------|-----------------|-----------------|-----------------|
A:-----------------|-----------------|-----------------|-----------------|
D:-3-3-3-3-3-3-3-3-|-3-3-3-3-3-3-3-3-|-7-7-7-7-7-7-7-7-|-7-7-7-7-7-7-7-7-|

Pause for 4 measures

Riff 2: (x4)
G:------------|--------------|------------|---------------|
D:------------|--------------|------------|---------------|
A:------------|--------------|------------|---------------|
D:-0--0--R--R-|-3--3--0-0--0-|-2--2--R--R-|-1--1--3-3-3-3-|

Riff 3: (x3)
G:------------|----------|------------|----------|
D:------------|----------|------------|----------|
A:------------|----------|-1/12******-|-******\1-|
D:-3/12******-|-******\3-|------------|----------|

Riff 1 (x2)
Pause for 4 measures
Riff 2 (x6)

Riff 4: (x6)
G:-------------|------------|
D:-------------|------------|
A:----2-----2~-|----0-------|
D:-2-----2-----|-3-----3--2-|

Pause for 6 meausres
Riff 2 (x8)

End:
G:------------|
D:------------|
A:------------|
D:-0--0--R--R-|

Break till end
  development and support by
dmitry ivanov