rock
 
|tablatures   |lyrics   |discussion forums   |more tabs @ XGuitar.com

Marilyn Manson tabs

Sweet Tooth bass tab

                                                                 
  Sweet Tooth
  Marilyn Manson
  transcribed by: Fred  freddy@soonet.ca

  I play this with my Morley Wah Pedal on full wah
  all the down to create the treble effect, I will 
  usually compress it with the slide entering the 
  intro.  I use a frettless bass giving me a longer
  slide ability

       
       <<
A-|--5-/-7--|


G-|-----------------------------------------7-5-5h7--|
D-|---9---7----7-7-5--5-5h7----9---7---7-7-----------|
A-|-7---7----7---------------7---7---7---------------|
E-|--------------------------------------------------|
                                                                               
                                                                               
G-|-------------------------|----------|
D-|-------------------------|----------|
A-|-7-7-7-6-6-6-5-5-5-6-6-6-|--7-6-5-6-|
E-|-------------------------|----------|
                                                                               
                                                                               
  development and support by
dmitry ivanov