rock
 
|tablatures   |lyrics   |discussion forums   |more tabs @ XGuitar.com

Marilyn Manson tabs

Snake Eyes And Sissies bass tab

Marilyn Manson
Snake Eyes and Sissies
Portrait of an American Family
VERSE
G:----------------------------
D:-----------6-5----------6-5-
A:---0-0-0-0-----0-0-0-0------
E:----------------------------

CHORUS

G:------------------------------------------------------------------
D:----------------------------------------------6-5-4---------6-5-4-
A:-55555555-66666666-88888888-99999999-0-0-0-0--------0-0-0-0-------
E:------------------------------------------------------------------

G:---------------------------------
D:---------6-5-4-------------------
A:-0-0-0-0-------55555555-66666666-
E:---------------------------------

  development and support by
dmitry ivanov